PrimaNota.ru - самый крупный в мире бесплатный архив песенных текстов, аккордов, табулатур и нот


Mac Demarco - Pepperoni Playboy - таба, видео

Регистрация Запомнить меня
Войти через:  Facebook Google Twitter Vk Yandex Mail.ru

Mac Demarco - Pepperoni Playboy - таба, видео

Печатать
Просмотров: 146
-------------------------------------------------------------------------------
                       Pepperoni Playboy - Mac Demarco
-------------------------------------------------------------------------------
Tabbed by: Ron Hambone


Tuning: Standard

e|-------10-------------10------------13-----------8-----------8----------11-----|
B|----------8--------------8-----8/10-----10---------6-----------6----6/8-----8--|
G|--8/10------10---8/10------10----------------6/8-----8---6/8-----8-------------| Repeat 4x
D|-------------------------------------------------------------------------------| 
A|-------------------------------------------------------------------------------|
E|-------------------------------------------------------------------------------|

e|--10-10--8-6-5-3--10-10--8-6-5-3--5----5----5----5--|
B|--8--8------------8--8------------3--3----3----3----|
G|--10-10-----------10-10-----------5-----------------| Repeat 2x
D|----------------------------------------------------| 
A|----------------------------------------------------|
E|----------------------------------------------------|

e|-------10-------------10------------13-----------8-----------8----------11-----|
B|----------8--------------8-----8/10-----10---------6-----------6----6/8-----8--|
G|--8/10------10---8/10------10----------------6/8-----8---6/8-----8-------------| Repeat 4x
D|-------------------------------------------------------------------------------| 
A|-------------------------------------------------------------------------------|
E|-------------------------------------------------------------------------------|

e|--10-10--8-6-5-3--10-10--8-6-5-3--5----5----5----5--|
B|--8--8------------8--8------------3--3----3----3----|
G|--10-10-----------10-10-----------5-----------------| Repeat 3x
D|----------------------------------------------------|
A|----------------------------------------------------|
E|----------------------------------------------------|


************************************

| /   slide up
| \   slide down
| h   hammer-on
| p   pull-off
| ~   vibrato
| +   harmonic
| x   Mute note
| b   Bend
| pb  Pre-bend
| br  Bend release
| pbr Pre-bend release
| brb Bend release bend

************************************
Добавлено: 26.09.2015
Другие материалы по этой песне:
  • Аккорды и текст

Страница создана 26.09.2015
http://primanota.ru/mac-demarco/pepperoni-playboy-chords.htm
Привет, Гость.
Предлагаем пройти революционный курс по гитаре.
Подарок от PrimaNota.Ru, забирай!