PrimaNota.ru - самый крупный в мире бесплатный архив песенных текстов, аккордов, табулатур и нот


Mac Demarco - Sloopy Lau Lau - таба, видео

Регистрация Запомнить меня
Войти через:  Facebook Google Twitter Vk Yandex Mail.ru

Mac Demarco - Sloopy Lau Lau - таба, видео

Печатать
Просмотров: 94
*On the parts with chords I didn't tab how many times you strum each chord, 
I only tabbed the way the chords progress*


-------------------------------------------------------------------------------
                         Sloopy Lau Lau - Mac Demarco
-------------------------------------------------------------------------------
Tabbed by: Ron Hambone


Tuning: Standard

                                     
e|------8----6----5----3----8----6----5----3----8----10----12--12/13-13----8----6----5----3----8----|
B|------8----6----5----3----8----6----5----3----8----10----12--------------8----6----5----3----8----|
G|----7/9----7----5----4----9----7----5----4----9----10----12--------------9----7----5----4----9----|
D|--------------------------------------------------------------------------------------------------|
A|--------------------------------------------------------------------------------------------------|
E|--------------------------------------------------------------------------------------------------|

e|----0--1--3--0--1--3---0--1--3--0--1--3-----10---7----0--1--3--0--1--3---0--1--3--0--1--3-----10----12---|
B|------------------------------------------10----6-------------------------------------------10----12-----|
G|---------------------------------------------------------------------------------------------------------|
D|---------------------------------------------------------------------------------------------------------|
A|---------------------------------------------------------------------------------------------------------|
E|---------------------------------------------------------------------------------------------------------|

e|------8----6----5----3----8----6----5----3----8----10----12--12/13-13----8----6----5----3----8----|
B|------8----6----5----3----8----6----5----3----8----10----12--------------8----6----5----3----8----|
G|----7/9----7----5----4----9----7----5----4----9----10----12--------------9----7----5----4----9----|
D|--------------------------------------------------------------------------------------------------|
A|--------------------------------------------------------------------------------------------------|
E|--------------------------------------------------------------------------------------------------|

e|----0--1--3--0--1--3---0--1--3--0--1--3-----10---7----0--1--3--0--1--3---0--1--3--0--1--3-----10----12---|
B|-----------------------------------------/10---/6------------------------------------------/10---/12-----|
G|---------------------------------------------------------------------------------------------------------|
D|---------------------------------------------------------------------------------------------------------|
A|---------------------------------------------------------------------------------------------------------|
E|---------------------------------------------------------------------------------------------------------|

e|----0--1--3--0--1--3---0--1--3--0--1--3---------15------------------8--------8----|
B|------------------------------------------11/13----13--11-13---8/10---10--10------|
G|----------------------------------------------------------------------------------|
D|----------------------------------------------------------------------------------|
A|----------------------------------------------------------------------------------|
E|----------------------------------------------------------------------------------|

e|----0--1--3--0--1--3---0--1--3--0--1--3---8----|
B|------------------------------------------8----|
G|------------------------------------------9----|
D|-----------------------------------------------|
A|-----------------------------------------------|
E|-----------------------------------------------|

e|----0--1--3--0--1--3---0--1--3--0--1--3---------15-----------15----------8----------8-------|
B|------------------------------------------11/13----13--11/13----13--8/10---10--8/10---10----|
G|--------------------------------------------------------------------------------------------|
D|--------------------------------------------------------------------------------------------|
A|--------------------------------------------------------------------------------------------|
E|--------------------------------------------------------------------------------------------|

e|----0--1--3--0--1--3---0--1--3--0--1--3---8\6----|
B|------------------------------------------8\6----|
G|------------------------------------------9\7----|
D|-------------------------------------------------|
A|-------------------------------------------------|
E|-------------------------------------------------|




************************************

| /   slide up
| \   slide down
| h   hammer-on
| p   pull-off
| ~   vibrato
| +   harmonic
| x   Mute note
| b   Bend
| pb  Pre-bend
| br  Bend release
| pbr Pre-bend release
| brb Bend release bend

************************************
Добавлено: 26.09.2015
Другие материалы по этой песне:
  • Аккорды и текст

Страница создана 26.09.2015
http://primanota.ru/mac-demarco/sloopy-lau-lau-chords.htm
Привет, Гость.
Предлагаем пройти революционный курс по гитаре.
Подарок от PrimaNota.Ru, забирай!