PrimaNota.ru - самый крупный в мире бесплатный архив песенных текстов, аккордов, табулатур и нот


Mac Demarco - Shes Really All I Need Live - бас-таба, видео

Регистрация Запомнить меня
Войти через:  Facebook Google Twitter Vk Yandex Mail.ru

Mac Demarco - Shes Really All I Need Live - бас-таба, видео

Печатать
Просмотров: 68
This is my first tab I've submitted! I made it for a band mate.
If you want the recorded version, I recommend just looking at
the chords here
https://tabs.ultimate-guitar.com/m/mac_demarco/shes_really_all_i_need_tab.htm


This is the video I took it from
https://www.youtube.com/watch?v=xHnErrv-N-U&ab_channel=StereoSpectacular

Verse
G|--------------------------------------------------------------
D|--------------------------------------------------------------
A|--------9-9-9-9-7-7-7-7-9-9-9-9-6-6-6-6--------4-4-4-4--------
E|-7-7-7-7--------------------------------4-4-4-4--------2-2-2-2

Chorus

G|------------------------------------------------------------
D|------------------------------------------------------------
A|--------2-2-2-2-------2-2-2-2-------------------------------
E|-4-4-4-4-------4-4-4-4-------7-7-7-7-4-4-4-4-2-2-2-2-2-2-2-2

Solo



G|---------------------------------
D|---------------------------------
A|---------------------------------
E|-4--------7--------2-------------


If somebody wants to add Pierces solo and re submit it, that's fine by me.

Cheers!
-HecklerK
Добавлено: 23.02.2016
Другие материалы по этой песне:
  • Аккорды и текст

Страница создана 23.02.2016
http://primanota.ru/mac-demarco/shes-really-all-i-need-live-chords.htm
Привет, Гость.
Предлагаем пройти революционный курс по гитаре.
Подарок от PrimaNota.Ru, забирай!