PrimaNota.ru - самый крупный в мире бесплатный архив песенных текстов, аккордов, табулатур и нот


Mac Demarco - Rolling Like A Dummy - таба, видео

Регистрация Запомнить меня
Войти через:  Facebook Google Twitter Vk Yandex Mail.ru

Mac Demarco - Rolling Like A Dummy - таба, видео

Печатать
Просмотров: 122
-------------------------------------------------------------------------------
                       Rolling Like a Dummy - Mac Demarco
-------------------------------------------------------------------------------
Tabbed by: DrWangerBanger
E-mail:

Tuning: Standard, with capo on 4th

Rhythm Chords, all pretty standard stuff:

G    3-5-5-4-3-3
D7   x-x-0-2-1-2
D7*  x-x-0-3-1-2
C    x-3-2-0-1-0
Bm   2-2-4-4-3-2
Am   x-0-2-2-1-0
Am*  3-0-2-2-1-0
D5   x-5-7-7-x-x
C5   x-3-5-5-x-x
B5   x-1-3-3-x-x

Rhythm Intro:

G   D7 (4x)

Lead Intro:

e|-3-----3------2--0--2--0-----------0----|
B|-3--5-----5---1-----------1-----1-------|
G|-4------------2--------------2----------| x3
D|----------------------------------------|
A|----------------------------------------|
E|----------------------------------------|


e|-3-----3------2--0--------------|
B|-3--5-----5---1-----3--1--0-----|
G|-4------------2--------------2--| x1
D|--------------------------------|
A|--------------------------------|
E|--------------------------------|

Rhythm Verse:

G                       D7
Sammy went and had a baby

G                       D7
And Marky's on his way to crazy

G                       D7
And I'm just sitting feeling lucky

C           Bm          Am    Am*    D7  D7*
That I just slipped right by it all

Lead Verse:

e|-3-----3------2--0--2--0-----------0----|
B|-3--5-----5---1-----------1-----1-------|
G|-4------------2--------------2----------| x3
D|----------------------------------------|
A|----------------------------------------|
E|----------------------------------------|

e|----0-------------0-----------0--------0------------------0--|
B|-1-----1------3-----------1---------1-----------0------------|
G|-----------4----------2----------0-----------2--------3------|
D|------------------------------------------4--------4---------| x1
A|-------------------------------------------------------------|
E|-------------------------------------------------------------|

Rhythm Verse:

G                       D7
And being friendly isn't funny

G                       D7
When you're seeing your old honey

G                       D7
Rolling like a dummy

C           Bm          Am        Am*    D7  D7*
Surprised that I slipped right on by it all

Lead Verse:

e|-3-----3------2--0--2--0-----------0----|
B|-3--5-----5---1-----------1-----1-------|
G|-4------------2--------------2----------| x3
D|----------------------------------------|
A|----------------------------------------|
E|----------------------------------------|

e|----0-------------0-----------0--------0------------------0--|
B|-1-----1------3-----------1---------1-----------0------------|
G|-----------4----------2----------0-----------2--------3------|
D|------------------------------------------4--------4---------| x1
A|-------------------------------------------------------------|
E|-------------------------------------------------------------|

Rhythm Chorus:

G                           D7                  C  D5 C5 Bm Am G
But when they're looking at me what do they see?

G                           D7                  C  D5 C5 Bm Am G
When they're looking at me what do they see?

Lead Chorus:

e|-3-------3----------0-----------3---------------------------------------------------|
B|-3---5------3-------3---3---5-------5------5-------7-7-7--5-5-5--3-3-3--1-1-1--3----|
G|-4--------------4---4---------------5----------5---7-7-7--5-5-5--4-4-4--2-2-2--4----| 2x
D|------------------------------------5---5-------------------------------------------|
A|------------------------------------------------------------------------------------|
E|------------------------------------------------------------------------------------|

Rhythm Verse:

G                       D7
I'd imagine a laugh

G                       D7
Is what they would have

G                       D7
Which isn't so bad

C           Bm          Am        Am*    D7  D7*
When all their lives arrive in all their ways (?)

Lead Verse:

e|-3-----3------2--0--2--0-----------0----|
B|-3--5-----5---1-----------1-----1-------|
G|-4------------2--------------2----------| x3
D|----------------------------------------|
A|----------------------------------------|
E|----------------------------------------|

e|----0-------------0-----------0--------0------------------0--|
B|-1-----1------3-----------1---------1-----------0------------|
G|-----------4----------2----------0-----------2--------3------|
D|------------------------------------------4--------4---------| x1
A|-------------------------------------------------------------|
E|-------------------------------------------------------------|

Rhythm Verse:

G                       D7
And being friendly isn't funny

G                       D7
When you're seeing your old honey

G                       D7
Rolling like a mommy

C           Bm          Am        Am*    D7  D7*
Surprised that I slipped right on by it all

Lead Verse:

e|-3-----3------2--0--2--0-----------0----|
B|-3--5-----5---1-----------1-----1-------|
G|-4------------2--------------2----------| x3
D|----------------------------------------|
A|----------------------------------------|
E|----------------------------------------|

e|----0-------------0-----------0--------0------------------0--|
B|-1-----1------3-----------1---------1-----------0------------|
G|-----------4----------2----------0-----------2--------3------|
D|------------------------------------------4--------4---------| x1
A|-------------------------------------------------------------|
E|-------------------------------------------------------------|

Rhythm Chorus:

G                           D7                  C  D5 C5 Bm Am G
But when they're looking at me what do they see?

G                           D7                  C  D5 C5 Bm Am G
When they're looking at me what do they see?

G                           D7                  C  D5 C5 Bm Am G
When they're looking at me what do they see?

G                           D7                  C  D5 C5 Bm Am G
When they're looking at me what do they see?


Lead Chorus:

e|-3-------3----------0-----------3---------------------------------------------------|
B|-3---5------3-------3---3---5-------5------5-------7-7-7--5-5-5--3-3-3--1-1-1--3----|
G|-4--------------4---4---------------5----------5---7-7-7--5-5-5--4-4-4--2-2-2--4----| 4x
D|------------------------------------5---5-------------------------------------------|
A|------------------------------------------------------------------------------------|
E|------------------------------------------------------------------------------------|

************************************

| /   slide up
| \   slide down
| h   hammer-on
| p   pull-off
| ~   vibrato
| +   harmonic
| x   Mute note
| b   Bend
| pb  Pre-bend
| br  Bend release
| pbr Pre-bend release
| brb Bend release bend

************************************
Добавлено: 26.09.2015
Другие материалы по этой песне:
  • Аккорды и текст

Страница создана 26.09.2015
http://primanota.ru/mac-demarco/rolling-like-a-dummy-chords.htm
Привет, Гость.
Предлагаем пройти революционный курс по гитаре.
Подарок от PrimaNota.Ru, забирай!