PrimaNota.ru - самый крупный в мире бесплатный архив песенных текстов, аккордов, табулатур и нот


Mac Demarco - My Kind Of Woman - аккорды и текст, таба, бас-таба, видео

Регистрация Запомнить меня
Войти через:  Facebook Google Twitter Vk Yandex Mail.ru

Mac Demarco - My Kind Of Woman - аккорды и текст, таба, бас-таба, видео

Печатать
Просмотров: 1046
Уроки эстрадного вокала в Санкт-Петербурге
My Kind Of Woman
Mac Demarco
E-mail: Mcgridleez@yahoo.com

Song: My Kind Of Woman

Artist: Mac Demarco

Tuning (Lead/ Rhythm): Standard(EADGBe)

Tuning (Bass) : Standard (EADG)

Capo: 2nd Fret

I've been addicted to this song for God knows how long, so I figured, "What the hell?" I 
decided to combine both the bass and guitar sections as best I can.

Chords
[ Em | C | G | Am | Bm ]

Alternatively, you can play without a capo. Obviously, the tab remains unchanged, but 
the chords will be as follows:

Em = F#m

G = D

C = A

Am = Bm

Bm = C#m

Verse Riff (Lead)
e|-10---10----9-----------9----------9----------10--9--5-------5-------|
B|-12---9-----10-10----10---10----10---10----10-9---7--5-5---5---5---5-|
G|------------11----11---------11---------11-----------6---6-------6---|
D|---------------------------------------------------------------------|
A|---------------------------------------------------------------------|
E|---------------------------------------------------------------------|

e|-2-------2-|
B|-2-2---2---|
G|-2---2-----|
D|-----------|  
Добавлено: 05.08.2013
Другие материалы по этой песне:

Страница создана 02.07.2013
http://primanota.ru/mac-demarco/my-kind-of-woman-chords.htm
Привет, Гость.
Предлагаем пройти революционный курс по гитаре.
Подарок от PrimaNota.Ru, забирай!