PrimaNota.ru - самый крупный в мире бесплатный архив песенных текстов, аккордов, табулатур и нот


Mac Demarco - Peters Pickles - таба, видео

Регистрация Запомнить меня
Войти через:  Facebook Google Twitter Vk Yandex Mail.ru

Mac Demarco - Peters Pickles - таба, видео

Печатать
Просмотров: 95
Mac DeMarco - Peters Pickles
https://www.youtube.com/watch?v=4BKBCd2dBq0

Tuning: Standard (EADGBe)

LEAD GUITAR

e -----------------------
B -----------------------
G -----7-9------7--------
D ---9--------7-----7-9--
A -----------------------
E -----------------------

e -----------------
B -----------------
G -----7-9------7--
D ---9--------7----
A -----------------
E -----------------

e ---------------------
B ------17----17----17-
G ---------------------
D ---17----17----17----
A ---------------------
E ---------------------

e ---14------------
B --------15-15----
G -----------------
D -----------------
A -----------------
E -----------------

e ---------------------
B ------17----17----17-
G ---------------------
D ---17----17----17----
A ---------------------
E ---------------------

e -------------------
B ---15--------------
G -------16--14------
D ---------------17--
A -------------------
E -------------------

e ---------------------
B ------17----17----17-
G ---------------------
D ---17----17----17----
A ---------------------
E ---------------------

e ---14-------------14----------
B ------17-15-14-------17-15-15-
G ---------------16-------------
D ------------------------------
A ------------------------------
E ------------------------------



RYTHM GUITAR CHORDS
(Thanks to ghgcl)

D, D, A, A7

And at the final part of the lead:
D, Em, A7



Bonus: BASS TAB
G ------------------------
D ---------7--------------
A -----7h9---9-7-9--------
E --10-------------10-10--

G ------------------------
D ---------7-9------------
A -----7h9-----7-9--------
E --10-------------10-----

G ------------------------
D ------------------------
A ------------------------
E --7-10-10----7-10-10----

G ------------------------
D ------------------------
A -----------7-9-10-10----
E --7-10-10---------------

And in the final part of the lead:
G --------------------------
D --------------------------
A --9------------9-7--------
E ----12-10-9-7------10-10--
Добавлено: 26.09.2015
Другие материалы по этой песне:
  • Аккорды и текст

Страница создана 26.09.2015
http://primanota.ru/mac-demarco/peters-pickles-chords.htm
Привет, Гость.
Предлагаем пройти революционный курс по гитаре.
Подарок от PrimaNota.Ru, забирай!