PrimaNota.ru - самый крупный в мире бесплатный архив песенных текстов, аккордов, табулатур и нот


Mac Demarco - Potato Boy - таба, видео

Регистрация Запомнить меня
Войти через:  Facebook Google Twitter Vk Yandex Mail.ru

Mac Demarco - Potato Boy - таба, видео

Печатать
Просмотров: 117
-------------------------------------------------------------------------------
                            Potato Boy - Mac Demarco
-------------------------------------------------------------------------------
Tabbed by: Ron Hambone


Tuning: Standard

e|---------------------------------------------------------------------------|
B|---------------------------------------------------------------------------|
G|-5-5-7--5-5-5-7--5-4-4-2--4-4----4--4-5-5-7--5-5-5-7--5-4-4-2--4-0----4--4-|
D|-------------------------------4/5----------------------------------4/5----|
A|---------------------------------------------------------------------------|
E|---------------------------------------------------------------------------|

e|---------------------------------------------------------------------------|
B|---------------------------------------------------------------------------|
G|--5-5-7--5-5-5-7--5-4-4-2--4-0----4--4-5-5-7--5-5-5-7--5-4-4-2--4-0----4---|
D|-------------------------------4/5----------------------------------4/5----|
A|---------------------------------------------------------------------------|
E|---------------------------------------------------------------------------|


*Guitar Break*


e|---------------------------------------------------------------------------|
B|---------------------------------------------------------------------------|
G|-5-5-7--5-5-5-7--5-4-4-2--2-0----4--4-5-5-7--5-5-5-7--5-4-4-2--4-4----4--4-|
D|------------------------------4/5----------------------------------4/5-----|
A|---------------------------------------------------------------------------|
E|---------------------------------------------------------------------------|

e|---------------------------------------------------------------------------|
B|---------------------------------------------------------------------------|
G|--5-5-7--5-5-5-7--5-4-4-2--4-0----4--4-5-5-7--5-5-5-7--5-4-4-2--4-4----4---|
D|-------------------------------4/5----------------------------------4/5----|
A|---------------------------------------------------------------------------|
E|---------------------------------------------------------------------------|

************************************

| /   slide up
| \   slide down
| h   hammer-on
| p   pull-off
| ~   vibrato
| +   harmonic
| x   Mute note
| b   Bend
| pb  Pre-bend
| br  Bend release
| pbr Pre-bend release
| brb Bend release bend

************************************
Добавлено: 26.09.2015
Другие материалы по этой песне:
  • Аккорды и текст

Страница создана 26.09.2015
http://primanota.ru/mac-demarco/potato-boy-chords.htm
Привет, Гость.
Предлагаем пройти революционный курс по гитаре.
Подарок от PrimaNota.Ru, забирай!