PrimaNota.ru - самый крупный в мире бесплатный архив песенных текстов, аккордов, табулатур и нот


Lamb Of God - Wrath (album) - таба, видео

Регистрация Запомнить меня
Войти через:  Facebook Google Twitter Vk Yandex Mail.ru

Lamb Of God - Wrath (album) - таба, видео

Печатать
Просмотров: 155
Like my other album tab
im just doing this so i can have them all in one place
but this time
i promise i picked only the top rated
so this should be better
again
i take no credit except for converging them
please comment and vote!

-Jake

Tabbers:
-Soothsayer92
-Unregistered
-Sgt.Seca
-Unregistered
-Aric666
-Old Rasputin
-Tyler Marley
-guitartilldeath
-TTElectro
-a guitar's life
-Lucid_Interval
-Dimerah(everything except coda for reclamation)

===============================================================

                    LAMB OF GOD - WRATH

===============================================================

1. The Passing

1st Part (acoustic) 2x
|------------------------------------------------------------------|
|------------------------------------------------------------------|
|--------------------------------------4------------0--------------|
|---------2---4-5--4h5p4--2---------------4------------4-----------|
|------2-------------------------------------2------------2--------|
|---2-------------------------2-----------------2------------2-----|

|------------------------------------------------------------------|
|------------------------------------------------------------------|
|------------------------------------------------------------------|
|---------2---4-5--4h5p4--5-4------0-------------------------------|
|------2-----------------------------------------------------------|
|---2--------------------------0-----------------------------------|

2nd Part (acoustic)
|-----------------------0-----------------------------------|
|------------0------------0------0--------------------------|
|----------2---2------------2------2------------------------|
|--------0-------0------------0------0----------------------|
|------3-----------3-------------------3--------------------|
|----3------------------------------------------------------|

|-----------------------------------------------------------|
|-----------------------------------------------------------|
|-----5s7-----7s9-----9s10---10s9----9s7--------------------|
|-----------------------------------------------------------|
|-----3s5-----5s7-----7s8-----8s7----7s5--------------------|
|---0-------0-------0-------0------0------------------------|

|-----------------------0-----------------------------------|
|------------0------------0------0--------------------------|
|----------2---2------------2------2------------------------|
|--------0-------0------------0------0----------------------|
|------3-----------3-------------------3--------------------|
|----3------------------------------------------------------|

|--------------------------------------------------------|
|--------------------------------------------------------|
|--------------------------------------------------------|
|--2-3-2-3-2-3-2-3-2-3-2-3-2-3--0------------------------|
|--0-1-0-1-0-1-0-1-0-1-0-1-0-1--0------------------------|
|-------------------------------0------------------------|

3rd Part (electric) 2x                     3x
|--12~~~----------------| |-------------------| |-------------------|
|-----------12----10~~--| |--12--10--8--7--5--| |--10~~---8--7------|
|-----------------------| |-------------------| |---------------7---|
|-----------------------| |---9---7--5--4--2--| |-------------------|
|-----------------------| |-------------------| |-------------------|
|-----------------------| |-------------------| |-------------------|

4th Part (solo) 2x
|------------------------------------------------------------------|
|---11b--9------9--11--9----11--11b--9------9--11--9--11--11~~-----|
|-----------11--------------------------11-------------------------|
|------------------------------------------------------------------|
|------------------------------------------------------------------|
|------------------------------------------------------------------|

0utro
|--------------------------------------------------------------------------|
|12--10--8--7--5----12--10--8--7--5----12--10--8--7--5----10~~--8--7-------|
|--------------------------------------------------------------------7--9~~|
|-9---7--5--4--2-----9---7--5--4--2-----9---7--5--4--2---------------------|
|--------------------------------------------------------------------------|
|--------------------------------------------------------------------------|


2. In Your Words

 Riff #1

e-|-----------------------------------------------|
b-|-----------------------------------------------|
g-|-----------------------------------------------|
d-|-----------------------------------------------|
a-|---------------------------------------11------|
d-|-0-0-12-0-12-0-12-0-12-0-12-0-12-0-12-0--12----|
    . .    .    .    .    .    .    .    .

e-|--------------------------------------|
b-|--------------------------------------|
g-|--------------------------------------|
d-|--------------------------------------|
a-|----------------------12------10-11-8-|
d-|-0-0-12-0-12-0-12-0-10--10-9-8--------|
    . .    .    .    .

e-|----------------------------------------------------------------------|
b-|----------------------------------------------------------------------|
g-|----------------------------------------------------------------------|
d-|--------------------------------------------------------------5-4-----|
a-|---------------------------------------11----7-----5-6-3---------6-5--|
d-|-0-0-12-0-12-0-12-0-12-0-12-0-12-0-12-0--12-5-5-4-3------3-2-1------5-|
    . .    .    .    .    .    .    .    .

you must play the above riff 4 times, but on the 2nd time, stop briefly on the part below

e-|---------------------------------------------------------|
b-|---------------------------------------------------------|
g-|---------------------------------------------------------|
d-|---------------------------------------------------------|
a-|---------------------------------------11----7-----5-6-3-|*PAUSE*
d-|-0-0-12-0-12-0-12-0-12-0-12-0-12-0-12-0--12-5-5-4-3------|
    . .    .    .    .    .    .    .    .

then it goes into this riff


Riff#2

e-|-------------------------------------------------------------|
b-|-------------------------------------------------------------|
g-|-------------------------------------------------------------|
d-|-------------------------------------------------------------|
a-|-----12p0-12p------12p0--------------------11-11-11-11-11-11-|
d-|-0-0-0----0----0-0-0----000000000000000000-0--0--0--0--0--0--|
    . .           . .      ..................

e-|----------------------------------------------------------------|
b-|----------------------------------------------------------------|
g-|----------------------------------------------------------------|
d-|------------------------------2----------5-------------3--------|
a-|-----12p0-12p0-----12p0------3-3-5-5-5-5-5-7p5-5-5-3-3-3--3-3-3-|
d-|-0-0-0----0----0-0-0----0-0-5----5-5-5-5-5-----5-5-3-3-3--2-2-2-|
    . .           . .      . .      . . . .       . . . .    . .

e-|---------------------------------------------------------------|
b-|---------------------------------------------------------------|
g-|---------------------------------------------------------------|
d-|---------------------------------------------------------------|
a-|-----12p0-12p0------12p0--------------------11-11-11-11-11-11--|
d-|-0-0-0----0-----0-0-0----000000000000000000-0--0--0--0--0--0---|
    . .           . .      ..................

e-|------------------------------------------------------------------------------------|
b-|------------------------------------------------------------------------------------|
g-|------------------------------------------------------------------------------------|
d-|------------------------------------------------------------------------------------|
a-|-----12p0--12p0-----12p0-------------------------------------4----------------------|
d-|-0-0-0-----0----0-0-0----000000-3p2p1-3p2p1p0-3h6p3p0-5-6-5-6--    . .           .--| 
    ......

Riff#3

e-|-------------------------------------------------------------------------|
b-|-------------------------------------------------------------------------|
g-|-------------------------------------------------------------------------|
d-|----------------------------------12-12-12-12-12-12----12-12-12-12-12-12-|
a-|-0-0---------0-0---------------00-9--9--9--9--9--9--00-8--8--8--8--8--8--|
d-|-0-0-3p0-3p0-0-0-3p0--00000000-00-0--0--0--0--0--0--00-0--0--0--0--0--0--|
    . .         . .      ........ ..                   ..

e-|------------------------------------------------------------------------|
b-|------------------------------------------------------------------------|
g-|------------------------------------------------------------------------|
d-|----------------------------------8--8--8--8--8--8-----7--7--7--7--7--7-|
a-|-0-0---------0-0---------------00-6--6--6--6--6--6--00-5--5--5--5--5--5-|
d-|-0-0-3p0-3p0-0-0-3p0--00000000-00-0--0--0--0--0--0--00-0--0--0--0--0--0-|
    . .         . .      ........ ..                   ..
play above 2 times

Riff #4

e-|------------------------------------------------------------|
b-|------------------------------------------------------------|
g-|------------------------------------------------------------|
d-|-8-8-8-8-8-8-8-8-8-8-8-8-8-8--5-5-5-5-5-5-5-x---------------|
a-|-8-8-8-8-8-8-8-8-8-8-8-8-8-8--5-5-5-5-5-5-5-x-3-3-3-x-3-3-3-|
d-|-8-8-8-8-8-8-8-8-8-8-8-8-8-8--5-5-5-5-5-5-5-x-3-3-3-x-2-2-2-|

e-|---------------------------------------------------------|
b-|---------------------------------------------------------|
g-|---------------------------------------------------------|then
d-|---------------------------------------------------------|start
a-|-------------------------------------------------7-7-7-7-|over
d-|-0-0-0-0-0-0-0-0-0-1-1-1-1p0-0-0-0-0-0-0-0-0-0-0-7-7-7-7-|
    . .   .   .   .             . .   .   .   .   .

on the second ending go back to riff 1 and repeat the cycle of riffs.

once you come back to Riff #1 for the second time, do it twice, and do the stop you do
the begining of the song, and go into this riff.

Riff #5

e-|------------------------|
b-|------------------------|
g-|------------------------|
d-|------------------------|
a-|-0000-0-0-0000-0-0-0000-|
d-|-0000-0-0-0000-0-0-0000-|


Riff #6 (played behind riff 5)

e-|--------------------------------------------------------------------|
b-|--------------------------------------------------------------------|
g-|--------------------------------------------------------------------|
d-|-3/444444444444\333333333333/444444444444\333333\111111/444444444444
a-|--------------------------------------------------------------------|
d-|--------------------------------------------------------------------|
    ...................................................................
e-|----------------------------------|
b-|----------------------------------|
g-|----------------------------------|
d-|-\333333333333/444444/777777777-7-|
a-|----------------------------------|
d-|----------------------------------|
     ............................. .


Riff #7

e-|--------------------------------------------------------------------------|
b-|--------------------------------------------------------------------------|
g-|-11-11-11-11-11-11-11-11-11-11-11-11-11-11-11-11-11-11-11-11-11-11-11-11\-|
d-|--x--x--x--x--x--x--x--x--x--x--x--x--x--x--x--x--x--x--x--x--x--x--x--x--|
a-|--9--9--9--9--9--9--9--9--9--9--9--9--9--9--9--9--9--9--9--9--9--9--9--9\-|
d-|--0--0--0--0--0--0--0--0--0--0--0--0--0--0--0--0--0--0--0--0--0--0--0--0--|

e-|-------------------------------------------------------------------------|
b-|-------------------------------------------------------------------------|
g-|-10-10-10-10-10-10-10-10-10-10-10-10-10-10-10-10-10-10-10-10-10-10-10-10-|
d-|--x--x--x--x--x--x--x--x--x--x--x--x--x--x--x--x--x--x--x--x--x--x--x--x-|
a-|--8--8--8--8--8--8--8--8--8--8--8--8--8--8--8--8--8--8--8--8--8--8--8--8-|
d-|--0--0--0--0--0--0--0--0--0--0--0--0--0--0--0--0--0--0--0--0--0--0--0--0-|

e-|--------------------------------------------------------------------------|
b-|--------------------------------------------------------------------------|
g-|-11-11-11-11-11-11-11-11-11-11-11-11-11-11-11-11-11-11-11-11-11-11-11-11\-|
d-|--x--x--x--x--x--x--x--x--x--x--x--x--x--x--x--x--x--x--x--x--x--x--x--x--|
a-|--9--9--9--9--9--9--9--9--9--9--9--9--9--9--9--9--9--9--9--9--9--9--9--9\-|
d-|--0--0--0--0--0--0--0--0--0--0--0--0--0--0--0--0--0--0--0--0--0--0--0--0--|

e-|--------------------------------------------------------------------------|
b-|--------------------------------------------------------------------------|
g-|--10-10-10-10-10-10-10-10-10-10-10-10-14-14-14-14-14-14-14-14-14-14-14-14-|
d-|--x--x--x--x--x--x--x--x--x--x--x--x--x--x--x--x--x--x--x--x--x--x--x--x--|
a-|--8--8--8--8--8--8--8--8--8--8--8--8--12-12-12-12-12-12-12-12-12-12-12-12-|
d-|--0--0--0--0--0--0--0--0--0--0--0--0--0--0--0--0--0--0--0--0--0--0--0--0--|

Riff #8

e-|----------------------------------------------------------|
b-|----------------------------------------------------------|
g-|-9-9-9-9-9-9--7-7-7-7-7-7-7-7-7-7-7-7--11-11-11-11-11-11--|
d-|-x-x-x-x-x-x--x-x-x-x-x-x-x-x-x-x-x-x---x--x--x--x--x--x--|
a-|-7-7-7-7-7-7--5-5-5-5-5-5-5-5-5-5-5-5---9--9--9--9--9--9--|
d-|-0-0-0-0-0-0--0-0-0-0-0-0-0-0-0-0-0-0---0--0--0--0--0--0--|

e-|--------------------------------------------------------------------------|
b-|--------------------------------------------------------------------------|
g-|-10-10-10-10-10-10-10-10-10-10-10-10--5-5-5-5-5-5-5-5-5-5-5-5-5-5-5-5-5-5-|
d-|--x--x--x--x--x--x--x--x--x--x--x--x--x-x-x-x-x-x-x-x-x-x-x-x-x-x-x-x-x-x-|
a-|--8--8--8--8--8--8--8--8--8--8--8--8--3-3-3-3-3-3-3-3-3-3-3-3-3-3-3-3-3-3-|
d-|--0--0--0--0--0--0--0--0--0--0--0--0--0-0-0-0-0-0-0-0-0-0-0-0-0-0-0-0-0-0-|

e-|---------------------------------------|
b-|---------------------------------------|
g-|-9-9-9-9-9-9--7-7-7-7-7-7-7-7-7-7-7-7--|
d-|-x-x-x-x-x-x--x-x-x-x-x-x-x-x-x-x-x-x--|
a-|-7-7-7-7-7-7--5-5-5-5-5-5-5-5-5-5-5-5--|
d-|-0-0-0-0-0-0--0-0-0-0-0-0-0-0-0-0-0-0--|


e-|--------------------------------------------------------------------|
b-|--------------------------------------------------------------------|
g-|-11-11-11-11-11-11--10-10-10-10-10-10-10-10-10-10-10-10-10-10-10-10-|
d-|--x--x--x--x--x--x--x--x--x--x--x--x--x--x--x--x--x--x--x--x--x--x--|
a-|--9--9--9--9--9--9--8--8--8--8--8--8--8--8--8--8--8--8--8--8--8--8--|
d-|--0--0--0--0--0--0--0--0--0--0--0--0--0--0--0--0--0--0--0--0--0--0--|

e-|---------------------------------------------------------------------|
b-|---------------------------------------------------------------------|
g-|-10-10-10-10-10-10-10-10-10-10-10-10-10-10-10-10--9-9-9-9-9-9--7-7-7-|
d-|--x--x--x--x--x--x--x--x--x--x--x--x--x--x--x--x--x-x-x-x-x-x--x-x-x-|
a-|--8--8--8--8--8--8--8--8--8--8--8--8--8--8--8--8--7-7-7-7-7-7--5-5-5-|
d-|--0--0--0--0--0--0--0--0--0--0--0--0--0--0--0--0--0-0-0-0-0-0--0-0-0-|

e-|-------------------|
b-|-------------------|
g-|-7-7-7-7-7-7-7-7-7-|
d-|-x-x-x-x-x-x-x-x-x-|
a-|-5-5-5-5-5-5-5-5-5-|
d-|-0-0-0-0-0-0-0-0-0-|


3. Set To Fail

Intro Riff

|----------------------------------------------------------------------------|
|----------------------------------------------------------------------------|
|----------------------------------------------------------------------------|
|----------------------------------------------------------------------------|
|----------------------------------------------------------------------------|
|2223-2223-2223-2223-2223-2223-2223-2222-3p2-22-3p2-22-3p2-22-3p2-22-3p2-22--|
 ***  ***  ***  ***  ***  ***  ***  ****     **     **     **     **     **

|--------------------------------------------------------------------------|
|--------------------------------------------------------------------------|
|--------------------------------------------------------------------------|
|--------------------------------------------------------------------------|
|--------------------------------------------------------------------------|
|3p2-22-3p2-22 3p2-22-2223-2223-2223-2223-2223-2223-2223-2222-3p2-22-3p2-22|
     **     **     ** ***  ***  ***  ***  ***  ***  ***  ****     **     **


|--------------------------------------------------------------------------|
|--------------------------------------------------------------------------|
|--------------------------------------------------------------------------|
|--------------------------------------------------------------------------|
|--------------------------------------------------------------------------|
|3p2-22-3p2-22-22222222----------------------------------------------------|
     **     **

Chorus Riff

|--------------------------------------------------------------------------|
|--------------------------------------------------------------------------|
|--------------------------------------------------------------------------|
|--------------------------------------------------------------------------|
|--------------------------------------------------------------------------|
|-2-3-0-5~---2-2-2-3-0-5~---2-2-2-3-0-5~--2-2-2-2-2-2-0-2-2-2--3-2-0-7~----|

|--------------------------------------------------------------------------|
|--------------------------------------------------------------------------|
|--------------------------------------------------------------------------|
|------------------------------------------------------7\------------------|
|------------------------------------------------------5\------------------|
|2-2-2-3-0-5~--2-2-2-3-0-5~--2-2-2-2-2-2-0-2-2-2--3-2-0-----2-2-2-3-0-5~---|
                                                  * * *

|--------------------------------------------------------------------------|
|--------------------------------------------------------------------------|
|--------------------------------------------------------------------------|
|--------------------------------------------------------------------------|
|--------------------------------------------------------------------------|
|2-2-2-3-0-5~--2-2-2-2-2-2-0-2-2-2--3-2-0-3~--2-2-2-3-0-3~--2-2-2-3-5------|


|--------------------------------------------------------------------------|
|--------------------------------------------------------------------------|
|--------------------------------------------------------------------------|
|--------------------------------------------------------------------------|
|--------------------------------------------------------------------------|
|-222-333-555-777----------------------------------------------------------|
  *** *** *** ***


Verse Riff

|--------------------------------------------------------------------------|
|--------------------------------------------------------------------------|
|--------------------------------------------------------------------------|
|--------------------------------------------------------------------------|
|--------------------------------------------------------------------------|
|2-3-0-5~-2223-2223-2223-2223-2223-2223--2-3-0-7~--2223-2223-2223-2223-2223|
          ***  ***  ***  ***  ***  ***             ***  ***  ***  ***  ***

|--------------------------------------------------------------------------|
|--------------------------------------------------------------------------|
|--------------------------------------------------------------------------|
|--------------------------------------------------------------------------|
|--------------------------------------------------------------------------|
|-2223--2-3-0-5~--2223-2223-2223-2223-2223-2223--2-3-0-7~--2223-2223-2223--|
  ***             ***  ***  ***  ***  ***  ***             ***  ***  ***

|--------------------------------------------------------------------------|
|--------------------------------------------------------------------------|
|--------------------------------------------------------------------------|
|--------------------------------------------------------------------------|
|----------5--------5---5--------------------------------------------------|
|--22--------2-0-2----2---2--5-4-3-0-3-0-6---------------------------------|
   **


 Bridge

|--------------------------------------------------------------------------|
|--------------------------------------------------------------------------|
|--------------------------------------------------------------------------|
|--------------------------------------------------------------------------|
|--------------------------------------------------------------------------|
|-000-10-0-12---0000-3*--000--7-3-7--6-2-0-1-5-1-0-1-----------------------|
  ***    *      ****     ***

|--------------------------------------------------------------------------|
|--------------------------------------------------------------------------|
|--------------------------------------------------------------------------|
|--------------------------------------------------------------------------|
|--------------------------------------------------------------------------|
|-000-10-0-12---0000-3*--000--7-3-7--6-2-0-1-5-1-0-1-----------------------|
  ***    *      ****     ***

|--------------------------------------------------------------------------|
|--------------------------------------------------------------------------|
|--------------------------------------------------------------------------|
|--------------------------------------------------------------------------|
|--------------------------------------------------------------------------|
|-000-10-0-12--000-10-0-12--000--7-3-7--000--6-5-3-0-3---------------------|
  ***    *     ***    *     ***         ***

|--------------------------------------------------------------------------|
|--------------------------------------------------------------------------|
|--------------------------------------------------------------------------|
|--------------------------------------------------------------------------|
|--------------------------------------------------------------------------|
|-000-10-0-12--000-10-0-12---222-333-555-777-------------------------------|
  ***    *     ***    *      *** *** *** ***

breakdown before the solo

|---------------------------------------------------------------------|
|---------------------------------------------------------------------|
|---------------------------------------------------------------------|   x4
|---------------------------------------------------------------------|
|---------------------------------------------------------------------|
|-222222000022222200002222220000-2-5-2-5-7-5-2-5----------------------|
  ****************************** * * * * * * * *


4. Contractor (My Personal Favorite)

Riff 1 (play twice)

    (-------x3--------------------------|
  E |----------------|------------------|
  B |----------------|------------------|
  G |----------------|------------------|
  D |----------------|------------------|
  A |----------------|---2--3-7--6--3---|
  D |0h2-222222222222|0002--3-7--6--3---|
  pm     ............ ...

Riff 2 - FAST!!! (play twice)

  E |-------------------------------------|
  B |-------------------------------------|
  G |-------------------------------------|
  D |-------------------------------------|
  A |-------------------------------------|
  D |0-0-0-0-0-0-0-0-12p11-0-11p10-0-12---|
  pm . . . . . . . .       .       .


  E |-------------------------------------|
  B |-------------------------------------|
  G |-------------------------------------|
  D |-------------------------------------|
  A |-------------------------------------|
  D |0-0-0-0-0-0-0-0-12p11-0-11p10-0-13---|
  pm . . . . . . . .       .       .


  E |-------------------------------------|
  B |-------------------------------------|
  G |-------------------------------------|
  D |-------------------------------------|
  A |-------------------------------------|
  D |0-0-0-0-0-0-0-0-12p11-0-11p10-0-14---|
  pm . . . . . . . .       .       .


  E |--------------------------------|
  B |--------------------------------|
  G |--------------------------------|
  D |--------------------------------|
  A |7-----6-----3---7-----6-----1---|
  D |7-----6-----3---7-----6-----1---|
  pm             .

Riff 3 - Slow again...

     1 + 2 + 3 + 4 +  1 +  2  + 3 + 4 +
  E |-----------------------------------|
  B |-----------------------------------|
  G |-----------------------------------|
  D |0-0-0-0-0-0-0-12---12-12---5---5/7-|
  A |0-0-0-0-0-0-0-10---10-10---3---3/5-|
  D |0-0-0-0-0-0-0-10---10-10-0-3-0-3/5-|
  pm . . . . . . .


     1 +  2  +  3  +  4  +  1 +  2  + 3 + 4 +
  E |-----------------------------------------|
  B |-----------------------------------------|
  G |-----------------------------------------|
  D |5-------------------12---12-12---5---5/7-|
  A |3-------------------10---10-10---3---3/5-|
  D |3-0000--0000--0000--10---10-10-0-3-0-3/5-|
  pm   ....  ....  ....


     1 + 2 + 3 + 4 +  1 +  2  + 3 + 4 +
  E |-----------------------------------|
  B |-----------------------------------|
  G |-----------------------------------|
  D |0-0-0-0-0-0-0-12---12-12---5---5/7-|
  A |0-0-0-0-0-0-0-10---10-10---3---3/5-|
  D |0-0-0-0-0-0-0-10---10-10-0-3-0-3/5-|
  pm . . . . . . .


     1 +  2  +  3  +  4  +
  E |--------------------------|
  B |--------------------------|
  G |--------------------------|
  D |5-------------------------|
  A |3-------------------------|
  D |3-0000--0000--0000--8b----|
  pm   ....  ....  ....

Repeat all that stuff, then....


E |---------------------------|
B |---------------------------|
G |---------------------------|
D |0--------------------------|
A |0-hold it a long time------|
D |0--------------------------|


slide up then down into the next riff...


Riff 4 (play four times)

     1 + 2 + 3 + 4 + 1 + 2 + 3 + 4 +
  E |--------------------------------|
  B |--------------------------------|
  G |--------------------------------|
  D |--3\2---7---6-----------5-------|
  A |0-3\2-0-7---6-----------5-------|
  D |0-3\2-0-7---6---------005-------|
  pm .     .               ..


     1 + 2 + 3 + 4 +  1 + 2 + 3 + 4 +
  E |---------------------------------|
  B |---------------------------------|
  G |---------------------------------|
  D |--2\3---2/3--------------2/3-----|
  A |0-2\3-0-2/3-0-10-0-0-0-0-2/3-0-0-|
  D |0-2\3-0-2/3-0-10-0-0-0-0-2/3-0-0-|   Don't know about that 10 there...
  pm .     .     . .  . . . .     . .


Breakdown

     1 + 2 + 3 + 4 +
  E |------------------------|
  B |------------------------|
  G |------------------------|
  D |--3\2---7---6-----------|
  A |0-3\2-0-7---6-----------|
  D |0-3\2-0-7---6-----------|
  pm .     .

fassssst

  E |-------------------------------------|
  B |-------------------------------------|
  G |-------------------------------------|
  D |-------------------------------------|
  A |-------------------------------------|
  D |0-0-0-0-0-0-0-0-12p11-0-11p10-0-12---|
  pm . . . . . . . .       .       .


  E |-------------------------------------|
  B |-------------------------------------|
  G |-------------------------------------|
  D |-------------------------------------|
  A |-------------------------------------|
  D |0-0-0-0-0-0-0-0-12p11-0-11p10-0-13---|
  pm . . . . . . . .       .       .


  E |-------------------------------------|
  B |-------------------------------------|
  G |-------------------------------------|
  D |-------------------------------------|
  A |-------------------------------------|
  D |0-0-0-0-0-0-0-0-12p11-0-11p10-0-14---|
  pm . . . . . . . .       .       .


  E |-------------------------------------|
  B |-------------------------------------|
  G |-------------------------------------|
  D |-------------------------------------|
  A |-------------------------------------|
  D |0-0-0-0-0-0-0-0-/15b-----------------|
  pm . . . . . . . .


Riff Something (Play twice I think...can't remember now)

  E |-------------------------------------|
  B |-------------------------------------|
  G |-------------------------------------|
  D |-------------------------------------|
  A |-------------------------------------|
  D |0-0-0-0-0-0-0-0-12p11-0-11p10-0-12---|
  pm . . . . . . . .       .       .


  E |-------------------------------------|
  B |-------------------------------------|
  G |-------------------------------------|
  D |-------------------------------------|
  A |-------------------------------------|
  D |0-0-0-0-0-0-0-0-12p11-0-11p10-0-13---|
  pm . . . . . . . .       .       .


  E |-------------------------------------|
  B |-------------------------------------|
  G |-------------------------------------|
  D |-------------------------------------|
  A |-------------------------------------|
  D |0-0-0-0-0-0-0-0-12p11-0-11p10-0-14---|
  pm . . . . . . . .       .       .


  E |--------------------------------|
  B |--------------------------------|
  G |--------------------------------|
  D |--------------------------------|
  A |--------------------------------|   There might be slight vibratos on these,
  D |7-----6-----3---7-----6-----1---|   but I don't want to find my iPod to check.
  pm             .


Then play riff 2 twice, and then....

Final Chorus: (play twice)

     1 + 2 + 3 + 4 +  1 +  2  + 3 + 4 +
  E |-----------------------------------|
  B |-----------------------------------|
  G |-----------------------------------|
  D |0-0-0-0-0-0-0-12---12-12---5---5/7-|
  A |0-0-0-0-0-0-0-10---10-10---3---3/5-|
  D |0-0-0-0-0-0-0-10---10-10-0-3-0-3/5-|
  pm . . . . . . .


     1 +  2  +  3  +  4  +  1 +  2  + 3 + 4 +
  E |-----------------------------------------|
  B |-----------------------------------------|
  G |-----------------------------------------|
  D |5-------------------12---12-12---5---5/7-|
  A |3-------------------10---10-10---3---3/5-|
  D |3-0000--0000--0000--10---10-10-0-3-0-3/5-|
  pm   ....  ....  ....


Outro (play 3 or 4 times, can't remember)

     1 + 2 + 3 + 4 +  1 +  2  + 3 + 4 +
  E |-----------------------------------|
  B |-----------------------------------|
  G |-----------------------------------|
  D |0-0-0-0-0-0-0-12---12-12---5---5/7-|
  A |0-0-0-0-0-0-0-10---10-10---3---3/5-|
  D |0-0-0-0-0-0-0-10---10-10-0-3-0-3/5-|
  pm . . . . . . .


Ending

     1 + 2 + 3 + 4 +
  E |-----------------|
  B |-----------------|
  G |-----------------|
  D |0-0-0-0-0-0-0----|
  A |0-0-0-0-0-0-0----|
  D |0-0-0-0-0-0-0-8b-|
  pm . . . . . . .


5. Fake Messiah

      S S S S S S Q.        S S S S S S S S S S S S    S S S S S S Q.      
D#||---------------------|--------------------------|---------------------|
A#||---------------------|--------------------------|---------------------|
F#||---------------------|--------------------------|---------------------|
C#||---------------------|--------------------------|---------------------|
G#||------5---5----------|--------5-------6-5-------|------5---5----------|
C#||--0-3---3---3--------|--0-5-6---6-5-5-----7-8-5-|--0-3---3---3--------|


  S S S S S S S S S S S S    S S S S S S Q.        S S S S S S S S S S S S  
--------------------------|---------------------|--------------------------|
--------------------------|---------------------|--------------------------|
--------------------------|---------------------|--------------------------|
--------------------------|---------------------|--------------------------|
------3---3-------8---8---|------5---5----------|--------5-------6-5-------|
--0-1---1---1-0-6---6---6-|--0-3---3---3--------|--0-5-6---6-5-5-----7-8-5-|


                                               PM PM PM PM PM          
  S S S S S S Q.        S S S S S S E  Q       S  E  E  S  E  S S S S  
---------------------|----------------------|-------------------------|
---------------------|----------------------|-------------------------|
---------------------|----------------------|-------------------------|
---------------------|----------------------|-------------------------|
------5---5----------|------3---3---1-------|--0--0--0--0--0--0-0-0-0-|
--0-3---3---3--------|--0-1---1---1-1-------|--0--0--0--0--0--0-0-0-0-|


  PM PM PM PM PM            PM PM PM PM PM            PM PM PM PM PM          
  S  E  E  S  E  S S S S    S  E  E  S  E  S S S S    S  E  E  S  E  S S S S  
-------------------------|-------------------------|-------------------------|
-------------------------|-------------------------|-------------------------|
-------------------------|-------------------------|-------------------------|
-------------------------|-------------------------|-------------------------|
--0--0--0--0--0--0-0-0-0-|--1--1--1--1--0--0-0-0-0-|--1--1--1--1--0--0-0-0-0-|
--0--0--0--0--0--0-0-0-0-|--1--1--1--1--0--0-0-0-0-|--1--1--1--1--0--0-0-0-0-|


  PM PM PM PM PM            PM PM PM PM PM            PM PM PM PM PM          
  S  E  E  S  E  S S S S    S  E  E  S  E  S S S S    S  E  E  S  E  S S S S  
-------------------------|-------------------------|-------------------------|
-------------------------|-------------------------|-------------------------|
-------------------------|-------------------------|-------------------------|
-------------------------|-------------------------|-------------------------|
--0--0--0--0--0--0-0-0-0-|--0--0--0--0--0--0-0-0-0-|--1--1--1--1--0--0-0-0-0-|
--0--0--0--0--0--0-0-0-0-|--0--0--0--0--0--0-0-0-0-|--1--1--1--1--0--0-0-0-0-|


  PM PM PM PM PM            PM PM PM PM PM            PM PM PM PM PM          
  S  E  E  S  E  S S S S    S  E  E  S  E  S S S S    S  E  E  S  E  S S S S  
-------------------------|-------------------------|-------------------------|
-------------------------|-------------------------|-------------------------|
-------------------------|-------------------------|-------------------------|
-------------------------|-------------------------|-------------------------|
--1--1--1--1--0--0-0-0-0-|--0--0--0--0--0--0-0-0-0-|--0--0--0--0--0--0-0-0-0-|
--1--1--1--1--0--0-0-0-0-|--0--0--0--0--0--0-0-0-0-|--0--0--0--0--0--0-0-0-0-|


  PM PM PM PM PM            PM PM PM PM PM            PM PM PM              
  S  E  E  S  E  S S S S    S  E  E  S  E  S S S S    E  E  E  S S S S S S  
-------------------------|-------------------------|-----------------------|
-------------------------|-------------------------|-----------------------|
-------------------------|-------------------------|-----------------------|
-------------------------|-------------------------|-----------------------|
--1--1--1--1--0--0-0-0-0-|--1--1--1--1--0--0-0-0-0-|--0--0--0--0-0-0-0-0-0-|
--1--1--1--1--0--0-0-0-0-|--1--1--1--1--0--0-0-0-0-|--0--0--0--0-0-0-0-0-0-|


  PM PM PM                                                        
  E  E  E  S S S S S S    E  E  E  E  E  E     E  E  E  E  E  E   
-----------------------|--------------------|--------------------|
-----------------------|--------------------|--------------------|
-----------------------|--------------------|--------------------|
-----------------------|--------------------|--------------------|
--0--0--0--0-0-0-0-0-0-|--2--2--2--2--2--2--|--3--3--3--3--3--3--|
--0--0--0--0-0-0-0-0-0-|--2--2--2--2--2--2--|--3--3--3--3--3--3--|


  PM PM PM                PM PM PM                                   
  E  E  E  S S S S S S    E  E  E  S S S S S S    E  E  E  E  E  E   
-----------------------|-----------------------|--------------------|
-----------------------|-----------------------|--------------------|
-----------------------|-----------------------|--------------------|
-----------------------|-----------------------|--------------------|
--0--0--0--0-0-0-0-0-0-|--0--0--0--0-0-0-0-0-0-|--2--2--2--2--2--2--|
--0--0--0--0-0-0-0-0-0-|--0--0--0--0-0-0-0-0-0-|--2--2--2--2--2--2--|


                                   PM PM PM PM PM PM  
  E  E  E  E  E  E     S S S S S S S  S  S  S  S  S   
--------------------|--------------------------------|
--------------------|--------------------------------|
--------------------|--------------------------------|
--------------------|--------------------------------|
--3--3--3--6--6--6--|------5---5---------------------|
--3--3--3--6--6--6--|--0-3---3---3-0--0--0--0--0--0--|


                                         PM PM PM PM PM PM  
  S S S S S S S S S S S S    S S S S S S S  S  S  S  S  S   
--------------------------|--------------------------------|
--------------------------|--------------------------------|
--------------------------|--------------------------------|
--------------------------|--------------------------------|
--------5-------6-5-------|------5---5---------------------|
--0-5-6---6-5-5-----7-8-5-|--0-3---3---3-0--0--0--0--0--0--|


                                         PM PM PM PM PM PM  
  S S S S S S S S S S S S    S S S S S S S  S  S  S  S  S   
--------------------------|--------------------------------|
--------------------------|--------------------------------|
--------------------------|--------------------------------|
--------------------------|--------------------------------|
------3---3-------8---8---|------5---5---------------------|
--0-1---1---1-0-6---6---6-|--0-3---3---3-0--0--0--0--0--0--|


                                         PM PM PM PM PM PM  
  S S S S S S S S S S S S    S S S S S S S  S  S  S  S  S   
--------------------------|--------------------------------|
--------------------------|--------------------------------|
--------------------------|--------------------------------|
--------------------------|--------------------------------|
--------5-------6-5-------|------5---5---------------------|
--0-5-6---6-5-5-----7-8-5-|--0-3---3---3-0--0--0--0--0--0--|


  S S S S S S S S S S S S    H.              H.            
--------------------------|---------------|---------------|
--------------------------|---------------|---------------|
--------------------------|---------------|---------------|
--------------------------|---------------|---------------|
------5---5-------3---2---|---------------|---------------|
--0-3---3---3-0-1---1---1-|---------------|---------------|


                             PM PM PM PM PM            PM PM PM PM PM          
  S S S S S S S S S S S S    S  E  E  S  E  S S S S    S  E  E  S  E  S S S S  
--------------------------|-------------------------|-------------------------|
--------------------------|-------------------------|-------------------------|
--------------------------|-------------------------|-------------------------|
--------------------------|-------------------------|-------------------------|
--------------------------|--0--0--0--0--0--0-0-0-0-|--0--0--0--0--0--0-0-0-0-|
--0-0-0-0-0-0-1-1-1-1-1-1-|--0--0--0--0--0--0-0-0-0-|--0--0--0--0--0--0-0-0-0-|


  PM PM PM PM PM            PM PM PM PM PM            PM PM PM PM PM          
  S  E  E  S  E  S S S S    S  E  E  S  E  S S S S    S  E  E  S  E  S S S S  
-------------------------|-------------------------|-------------------------|
-------------------------|-------------------------|-------------------------|
-------------------------|-------------------------|-------------------------|
-------------------------|-------------------------|-------------------------|
--1--1--1--1--0--0-0-0-0-|--1--1--1--1--0--0-0-0-0-|--0--0--0--0--0--0-0-0-0-|
--1--1--1--1--0--0-0-0-0-|--1--1--1--1--0--0-0-0-0-|--0--0--0--0--0--0-0-0-0-|


  PM PM PM PM PM            PM PM PM PM PM            PM PM PM PM PM          
  S  E  E  S  E  S S S S    S  E  E  S  E  S S S S    S  E  E  S  E  S S S S  
-------------------------|-------------------------|-------------------------|
-------------------------|-------------------------|-------------------------|
-------------------------|-------------------------|-------------------------|
-------------------------|-------------------------|-------------------------|
--0--0--0--0--0--0-0-0-0-|--1--1--1--1--0--0-0-0-0-|--1--1--1--1--0--0-0-0-0-|
--0--0--0--0--0--0-0-0-0-|--1--1--1--1--0--0-0-0-0-|--1--1--1--1--0--0-0-0-0-|


  PM PM PM PM PM            PM PM PM PM PM            PM PM PM PM PM          
  S  E  E  S  E  S S S S    S  E  E  S  E  S S S S    S  E  E  S  E  S S S S  
-------------------------|-------------------------|-------------------------|
-------------------------|-------------------------|-------------------------|
-------------------------|-------------------------|-------------------------|
-------------------------|-------------------------|-------------------------|
--0--0--0--0--0--0-0-0-0-|--0--0--0--0--0--0-0-0-0-|--1--1--1--1--0--0-0-0-0-|
--0--0--0--0--0--0-0-0-0-|--0--0--0--0--0--0-0-0-0-|--1--1--1--1--0--0-0-0-0-|


  PM PM PM PM PM            PM PM PM                PM PM PM              
  S  E  E  S  E  S S S S    E  E  E  S S S S S S    E  E  E  S S S S S S  
-------------------------|-----------------------|-----------------------|
-------------------------|-----------------------|-----------------------|
-------------------------|-----------------------|-----------------------|
-------------------------|-----------------------|-----------------------|
--1--1--1--1--0--0-0-0-0-|--0--0--0--0-0-0-0-0-0-|--0--0--0--0-0-0-0-0-0-|
--1--1--1--1--0--0-0-0-0-|--0--0--0--0-0-0-0-0-0-|--0--0--0--0-0-0-0-0-0-|


                                            PM PM PM              
  E  E  E  E  E  E     E  E  E  E  E  E     E  E  E  S S S S S S  
--------------------|--------------------|-----------------------|
--------------------|--------------------|-----------------------|
--------------------|--------------------|-----------------------|
--------------------|--------------------|-----------------------|
--2--2--2--2--2--2--|--3--3--3--3--3--3--|--0--0--0--0-0-0-0-0-0-|
--2--2--2--2--2--2--|--3--3--3--3--3--3--|--0--0--0--0-0-0-0-0-0-|


  PM PM PM                                                        
  E  E  E  S S S S S S    E  E  E  E  E  E     E  E  E  E  E  E   
-----------------------|--------------------|--------------------|
-----------------------|--------------------|--------------------|
-----------------------|--------------------|--------------------|
-----------------------|--------------------|--------------------|
--0--0--0--0-0-0-0-0-0-|--2--2--2--2--2--2--|--3--3--3--6--6--6--|
--0--0--0--0-0-0-0-0-0-|--2--2--2--2--2--2--|--3--3--3--6--6--6--|


              PM PM PM PM PM PM                             
  S S S S S S S  S  S  S  S  S     S S S S S S S S S S S S  
--------------------------------|--------------------------|
--------------------------------|--------------------------|
--------------------------------|--------------------------|
--------------------------------|--------------------------|
------5---5---------------------|--------5-------6-5-------|
--0-3---3---3-0--0--0--0--0--0--|--0-5-6---6-5-5-----7-8-5-|


              PM PM PM PM PM PM                             
  S S S S S S S  S  S  S  S  S     S S S S S S S S S S S S  
--------------------------------|--------------------------|
--------------------------------|--------------------------|
--------------------------------|--------------------------|
--------------------------------|--------------------------|
------5---5---------------------|------3---3-------8---8---|
--0-3---3---3-0--0--0--0--0--0--|--0-1---1---1-0-6---6---6-|


              PM PM PM PM PM PM                             
  S S S S S S S  S  S  S  S  S     S S S S S S S S S S S S  
--------------------------------|--------------------------|
--------------------------------|--------------------------|
--------------------------------|--------------------------|
--------------------------------|--------------------------|
------5---5---------------------|--------5-------6-5-------|
--0-3---3---3-0--0--0--0--0--0--|--0-5-6---6-5-5-----7-8-5-|


              PM PM PM PM PM PM                             
  S S S S S S S  S  S  S  S  S     S S S S S S S S S S S S  
--------------------------------|--------------------------|
--------------------------------|--------------------------|
--------------------------------|--------------------------|
--------------------------------|--------------------------|
------5---5---------------------|------5---5-------3---2---|
--0-3---3---3-0--0--0--0--0--0--|--0-3---3---3-0-1---1---1-|


              PM PM PM PM PM PM                             
  S S S S S S S  S  S  S  S  S     S S S S S S S S S S S S  
--------------------------------|--------------------------|
--------------------------------|--------------------------|
--------------------------------|--------------------------|
--------------------------------|--------------------------|
------5---5---------------------|--------5-------6-5-------|
--0-3---3---3-0--0--0--0--0--0--|--0-5-6---6-5-5-----7-8-5-|


              PM PM PM PM PM PM                             
  S S S S S S S  S  S  S  S  S     S S S S S S S S S S S S  
--------------------------------|--------------------------|
--------------------------------|--------------------------|
--------------------------------|--------------------------|
--------------------------------|--------------------------|
------5---5---------------------|------3---3-------8---8---|
--0-3---3---3-0--0--0--0--0--0--|--0-1---1---1-0-6---6---6-|


              PM PM PM PM PM PM                             
  S S S S S S S  S  S  S  S  S     S S S S S S S S S S S S  
--------------------------------|--------------------------|
--------------------------------|--------------------------|
--------------------------------|--------------------------|
--------------------------------|--------------------------|
------5---5---------------------|--------5-------6-5-------|
--0-3---3---3-0--0--0--0--0--0--|--0-5-6---6-5-5-----7-8-5-|


              PM PM PM PM PM PM                             
  S S S S S S S  S  S  S  S  S     S S S S S S S S S S S S  
--------------------------------|--------------------------|
--------------------------------|--------------------------|
--------------------------------|--------------------------|
--------------------------------|--------------------------|
------5---5---------------------|------5---5-------3---2---|
--0-3---3---3-0--0--0--0--0--0--|--0-3---3---3-0-1---1---1-|

-------------------------------------------------------------
RIFF PLAYED BY GUITAR 2

|--------------------|------------------|
|--------------------|------------------|
|------------4b------|--L---------------|
|--------------------|------------------|
|--6-6--6--6---------|---------3--3--3--|
|--6-6--6--6---------|---------3--3--3--|
---------------------------------------------------------------

  S E  E  S S E  E  S    S E  E  S E  E  E     S E  E  S S E  E  S  
----------------------|---------------------|----------------------|
----------------------|---------------------|----------------------|
----------------------|---------------------|----------------------|
----------------------|---------------------|----------------------|
--6-6--6--6-6-6--6--6-|--6-6--6--6-3--3--3--|--6-6--6--6-6-6--6--6-|
--6-6--6--6-6-6--6--6-|--6-6--6--6-3--3--3--|--6-6--6--6-6-6--6--6-|


  S E  E  S E  E  E     S E  E  S S E  E  S    S E  E  S E  E  E   
---------------------|----------------------|---------------------|
---------------------|----------------------|---------------------|
---------------------|----------------------|---------------------|
---------------------|----------------------|---------------------|
--6-6--6--6-3--3--3--|--6-6--6--6-6-6--6--6-|--6-6--6--6-3--3--3--|
--6-6--6--6-3--3--3--|--6-6--6--6-6-6--6--6-|--6-6--6--6-3--3--3--|


                                               PM PM              
  S E  E  S S E  E  S    S E  E  S E  E  E     S  S  H        E   
----------------------|---------------------|--------------------|
----------------------|---------------------|--------------------|
----------------------|---------------------|--------------------|
----------------------|---------------------|--------------------|
--6-6--6--6-6-6--6--6-|--6-6--6--6-3--3--3--|--------------------|
--6-6--6--6-6-6--6--6-|--6-6--6--6-3--3--3--|--0--0--------------|


  PM PM      PM PM PM PM PM PM    PM PM                PM PM      PM PM       
  S  S  Q    S  S  S  S  S  S     S  S  H        E     S  S  Q    S  S  Q     
-------------------------------|--------------------|------------------------|
-------------------------------|--------------------|------------------------|
-------------------------------|--------------------|------------------------|
-------------------------------|--------------------|------------------------|
-------------------------------|--------------------|------------------------|
--0--0-------0--0--0--0--0--0--|--0--0--------------|--0--0-------0--0-------|


  PM PM                PM PM      PM PM PM PM PM PM    PM PM              
  S  S  H        E     S  S  Q    S  S  S  S  S  S     S  S  H        E   
--------------------|-------------------------------|--------------------|
--------------------|-------------------------------|--------------------|
--------------------|-------------------------------|--------------------|
--------------------|-------------------------------|--------------------|
--------------------|-------------------------------|--------------------|
--0--0--------------|--0--0-------0--0--0--0--0--0--|--0--0--------------|


  PM PM      PM PM         PM PM                      
  S  S  Q    S  S  Q       S  S  S S S S S S S S S S  
------------------------|----------------------------|
------------------------|----------------------------|
------------------------|----------------------------|
------------------------|----------------------------|
------------------------|--------8-5-8-5-8-5-8-5-8-5-|
--0--0-------0--0-------|--0--0----------------------|


  PM PM         PM PM PM PM PM PM    PM PM                      
  S  S  S S S S S  S  S  S  S  S     S  S  S S S S S S S S S S  
----------------------------------|----------------------------|
----------------------------------|----------------------------|
----------------------------------|----------------------------|
----------------------------------|----------------------------|
--------8-5-8-5-------------------|--------8-5-8-5-8-5-8-5-8-5-|
--0--0----------0--0--0--0--0--0--|--0--0----------------------|


  PM PM           PM PM            PM PM                      
  S  S   S S  S S S  S  S S S S    S  S  S S S S S S S S S S  
--------------------------------|----------------------------|
--------------------------------|----------------------------|
--------------------------------|----------------------------|
--------------------------------|----------------------------|
--------10-7-10-7-------7-4-7-4-|--------8-5-8-5-8-5-8-5-8-5-|
--0--0------------0--0----------|--0--0----------------------|


  PM PM         PM PM PM PM PM PM    PM PM                      
  S  S  S S S S S  S  S  S  S  S     S  S  S S S S S S S S S S  
----------------------------------|----------------------------|
----------------------------------|----------------------------|
----------------------------------|----------------------------|
----------------------------------|----------------------------|
--------8-5-8-5-------------------|--------8-5-8-5-8-5-8-5-8-5-|
--0--0----------0--0--0--0--0--0--|--0--0----------------------|


  PM PM           PM PM                                                
  S  S   S S  S S S  S  S S S S     
--------------------------------|
--------------------------------|
--------------------------------|
--------------------------------|
--------10-7-10-7-------7-4-7-4-|
--0--0------------0--0----------|


--------------------------------------------------------------------
RIFF PLAYED BY GUITAR 2 DURING SLIDES

 PM PM                        PM PM         PM PM PM PM PM PM  
  S  S  S S S S S S S S S S    S  S  S S S S S  S  S  S  S  S   
----------------------------|----------------------------------|
----------------------------|----------------------------------|
----------------------------|----------------------------------|
----------------------------|----------------------------------|
--------8-5-8-5-8-5-8-5-8-5-|--------8-5-8-5-------------------|
--0--0----------------------|--0--0----------0--0--0--0--0--0--|


  PM PM                        PM PM           PM PM          
  S  S  S S S S S S S S S S    S  S   S S  S S S  S  S S S S  
----------------------------|--------------------------------|
----------------------------|--------------------------------|
----------------------------|--------------------------------|
----------------------------|--------------------------------|
--------8-5-8-5-8-5-8-5-8-5-|--------10-7-10-7-------7-4-7-4-|
--0--0----------------------|--0--0------------0--0----------|


  PM PM                        PM PM         PM PM PM PM PM PM  
  S  S  S S S S S S S S S S    S  S  S S S S S  S  S  S  S  S   
----------------------------|----------------------------------|
----------------------------|----------------------------------|
----------------------------|----------------------------------|
----------------------------|----------------------------------|
--------8-5-8-5-8-5-8-5-8-5-|--------8-5-8-5-------------------|
--0--0----------------------|--0--0----------0--0--0--0--0--0--|


  PM PM                        PM PM           PM PM          
  S  S  S S S S S S S S S S    S  S   S S  S S S  S  S S S S  
----------------------------|--------------------------------|
----------------------------|--------------------------------|
----------------------------|--------------------------------|
----------------------------|--------------------------------|
--------8-5-8-5-8-5-8-5-8-5-|--------10-7-10-7-------7-4-7-4-|
--0--0----------------------|--0--0------------0--0----------|


  PM PM                        PM PM         PM PM PM PM PM PM  
  S  S  S S S S S S S S S S    S  S  S S S S S  S  S  S  S  S   
----------------------------|----------------------------------|
----------------------------|----------------------------------|
----------------------------|----------------------------------|
----------------------------|----------------------------------|
--------8-5-8-5-8-5-8-5-8-5-|--------8-5-8-5-------------------|
--0--0----------------------|--0--0----------0--0--0--0--0--0--|


  PM PM                        PM PM           PM PM          
  S  S  S S S S S S S S S S    S  S   S S  S S S  S  S S S S  
----------------------------|--------------------------------|
----------------------------|--------------------------------|
----------------------------|--------------------------------|
----------------------------|--------------------------------|
--------8-5-8-5-8-5-8-5-8-5-|--------10-7-10-7-------7-4-7-4-|
--0--0----------------------|--0--0------------0--0----------|


  PM PM                        PM PM         PM PM PM PM PM PM  
  S  S  S S S S S S S S S S    S  S  S S S S S  S  S  S  S  S   
----------------------------|----------------------------------|
----------------------------|----------------------------------|
----------------------------|----------------------------------|
----------------------------|----------------------------------|
--------8-5-8-5-8-5-8-5-8-5-|--------8-5-8-5-------------------|
--0--0----------------------|--0--0----------0--0--0--0--0--0--|


  PM PM                        PM PM           PM PM          
  S  S  S S S S S S S S S S    S  S   S S  S S S  S  S S S S  
----------------------------|--------------------------------|
----------------------------|--------------------------------|
----------------------------|--------------------------------|
----------------------------|--------------------------------|
--------8-5-8-5-8-5-8-5-8-5-|--------10-7-10-7-------7-4-7-4-|
--0--0----------------------|--0--0------------0--0----------|


  PM PM                        PM PM         PM PM PM PM PM PM  
  S  S  S S S S S S S S S S    S  S  S S S S S  S  S  S  S  S   
----------------------------|----------------------------------|
----------------------------|----------------------------------|
----------------------------|----------------------------------|
----------------------------|----------------------------------|
--------8-5-8-5-8-5-8-5-8-5-|--------8-5-8-5-------------------|
--0--0----------------------|--0--0----------0--0--0--0--0--0--|


  PM PM                        PM PM           PM PM          
  S  S  S S S S S S S S S S    S  S   S S  S S S  S  S S S S  
----------------------------|--------------------------------|
----------------------------|--------------------------------|
----------------------------|--------------------------------|
----------------------------|--------------------------------|
--------8-5-8-5-8-5-8-5-8-5-|--------10-7-10-7-------7-4-7-4-|
--0--0----------------------|--0--0------------0--0----------|


  PM PM                        PM PM         PM PM PM PM PM PM  
  S  S  S S S S S S S S S S    S  S  S S S S S  S  S  S  S  S   
----------------------------|----------------------------------|
----------------------------|----------------------------------|
----------------------------|----------------------------------|
----------------------------|----------------------------------|
--------8-5-8-5-8-5-8-5-8-5-|--------8-5-8-5-------------------|
--0--0----------------------|--0--0----------0--0--0--0--0--0--|


  PM PM                        PM PM         PM PM          
  S  S  S S S S S S S S S S    S  S  S S S S S  S  S S S S  
----------------------------|------------------------------|
----------------------------|------------------------------|
----------------------------|------------------------------|
----------------------------|------------------------------|
--------8-5-8-5-8-5-8-5-8-5-|--------7-4-7-4-------7-4-7-4-|
--0--0----------------------|--0--0----------0--0----------|


  PM PM                        PM PM         PM PM PM PM PM PM  
  S  S  S S S S S S S S S S    S  S  S S S S S  S  S  S  S  S   
----------------------------|----------------------------------|
----------------------------|----------------------------------|
----------------------------|----------------------------------|
----------------------------|----------------------------------|
--------8-5-8-5-8-5-8-5-8-5-|--------8-5-8-5-------------------|
--0--0----------------------|--0--0----------0--0--0--0--0--0--|


  PM PM                        PM PM           PM PM          
  S  S  S S S S S S S S S S    S  S   S S  S S S  S  S S S S  
----------------------------|--------------------------------|
----------------------------|--------------------------------|
----------------------------|--------------------------------|
----------------------------|--------------------------------|
--------8-5-8-5-8-5-8-5-8-5-|--------10-7-10-7-------7-4-7-4-|
--0--0----------------------|--0--0------------0--0----------|


  PM PM                        PM PM         PM PM PM PM PM PM  
  S  S  S S S S S S S S S S    S  S  S S S S S  S  S  S  S  S   
----------------------------|----------------------------------|
----------------------------|----------------------------------|
----------------------------|----------------------------------|
----------------------------|----------------------------------|
--------8-5-8-5-8-5-8-5-8-5-|--------8-5-8-5-------------------|
--0--0----------------------|--0--0----------0--0--0--0--0--0--|


  PM PM                        PM PM           PM PM                         
  S  S  S S S S S S S S S S    S  S   S S  S S S  S  S S S S                 
----------------------------|--------------------------------|----|----|----|
----------------------------|--------------------------------|----|----|----|
----------------------------|--------------------------------|----|----|----|
----------------------------|--------------------------------|----|----|----|
--------8-5-8-5-8-5-8-5-8-5-|--------10-7-10-7-------7-4-7-4-|----|----|----|
--0--0----------------------|--0--0------------0--0----------|----|----|----|

-----------------------------------------------------------------------------------------------

-------------------|-----------------|
-------------------|-----------------|
-------------------|-----------------|
--/15s~------------|---L------7------|
-------------------|-----------------|
-------------------|-----------------|


  H.                 Q.       Q.         H.                 H.            
-----------------|-------------------|------------------|----------------|
-----------------|-------------------|------------------|----------------|
-----------------|-------------------|------------------|----------------|
--6s~------------|--11s------17------|--15s~------------|---L------------|
-----------------|-------------------|------------------|----------------|
-----------------|-------------------|------------------|----------------|


   H.               Q.     Q.          H.                 Q.     Q.      
-----------------|-----------------|------------------|-----------------|
-----------------|-----------------|------------------|-----------------|
-----------------|-----------------|------------------|-----------------|
--14s------------|--8------7s------|--15s~------------|---L------7------|
-----------------|-----------------|------------------|-----------------|
-----------------|-----------------|------------------|-----------------|


  Q.        Q.          Q.       Q.           H.               H.            
--------------------|---------------------|----------------|----------------|
--------------------|---------------------|----------------|----------------|
--------------------|---------------------|----------------|----------------|
--6s~------11s------|--14s------12s~------|---L------------|---L------------|
--------------------|---------------------|----------------|----------------|
--------------------|---------------------|----------------|----------------|


                              PH         PM PM PM              
   H.               Q.        Q.         E  E  E  S S S S S S  
-----------------|--------------------|-----------------------|
-----------------|--------------------|-----------------------|
-----------------|--------------------|-----------------------|
--14~------------|--8s------<>7\------|-----------------------|
-----------------|--------------------|--0--0--0--0-0-0-0-0-0-|
-----------------|--------------------|--0--0--0--0-0-0-0-0-0-|


  PM PM PM                                                        
  E  E  E  S S S S S S    E  E  E  E  E  E     E  E  E  E  E  E   
-----------------------|--------------------|--------------------|
-----------------------|--------------------|--------------------|
-----------------------|--------------------|--------------------|
-----------------------|--------------------|--------------------|
--0--0--0--0-0-0-0-0-0-|--2--2--2--2--2--2--|--3--3--3--3--3--3--|
--0--0--0--0-0-0-0-0-0-|--2--2--2--2--2--2--|--3--3--3--3--3--3--|


  PM PM PM                PM PM PM                                   
  E  E  E  S S S S S S    E  E  E  S S S S S S    E  E  E  E  E  E   
-----------------------|-----------------------|--------------------|
-----------------------|-----------------------|--------------------|
-----------------------|-----------------------|--------------------|
-----------------------|-----------------------|--------------------|
--0--0--0--0-0-0-0-0-0-|--0--0--0--0-0-0-0-0-0-|--2--2--2--2--2--2--|
--0--0--0--0-0-0-0-0-0-|--0--0--0--0-0-0-0-0-0-|--2--2--2--2--2--2--|


                                   PM PM PM PM PM PM  
  E  E  E  E  E  E     S S S S S S S  S  S  S  S  S   
--------------------|--------------------------------|
--------------------|--------------------------------|
--------------------|--------------------------------|
--------------------|--------------------------------|
--3--3--3--6--6--6--|------5---5-------------------
Добавлено: 08.04.2012
Другие материалы по этой песне:
  • Аккорды и текст

Страница создана 08.04.2012
http://primanota.ru/lamb-of-god/wrath-album-chords.htm
Привет, Гость.
Предлагаем пройти революционный курс по гитаре.
Подарок от PrimaNota.Ru, забирай!