PrimaNota.ru - самый крупный в мире бесплатный архив песенных текстов, аккордов, табулатур и нот


Lamb Of God - Overlord - таба, видео

Регистрация Запомнить меня
Войти через:  Facebook Google Twitter Vk Yandex Mail.ru

Lamb Of God - Overlord - таба, видео

Печатать
Просмотров: 191
Авторы: Lamb of God

Solo tab:
Lamb of God - Overlord
Drop D Tuning

b - bend
~ - vibrato 
* - pinch harmonic
pm - palm mute


E|--10-------12------13------------------------------------------|
B|--13b~~----15b~~---16b~~\---10~~-------------------------------|
G|----------------------------10~~-------------10----------------|
D|---------------------------------12-11-10-------12~~~-12*\-----|
A|------------------------------------------12-------------------|
D|---------------------------------------------------------------|
                                 pm .  .  .  .

E|---------------------------------------------------------------|
B|---------------------------------------------------------------|
G|-----------------------10*----10-12b-r12p10----10\9------------|
D|----------9----9-10-12----12---------------12-------10~~-------|
A|--9-10-12---12-------------------------------------------------|
D|---------------------------------------------------------------|
 pm . .  .    .

E|-------------------------------------------------/9-9b10~------|
B|---------------------------------------------------------------|
G|----------9-10b--r10p9-10--9h10p9------------------------------|
D|-----9-10-------------------------10-12-12~~\------------------|
A|--12-----------------------------------------------------------|
D|---------------------------------------------------------------|


E|--10-----------------------------------------------------------|
B|-----13-10-13-10-----------------------------------------------|
G|-----------------12-10----12b*-r12p9---------------------------|
D|-----------------------12-------------12-10----10-12~~\--------|
A|--------------------------------------------12-----------------|
D|---------------------------------------------------------------|

Добавлено: 02.09.2015
Вам также может быть интересно:
Другие материалы по этой песне:

Страница создана 02.09.2015
http://primanota.ru/lamb-of-god/overlord-chords.htm
Привет, Гость.
Предлагаем пройти революционный курс по гитаре.
Подарок от PrimaNota.Ru, забирай!