PrimaNota.ru - самый крупный в мире бесплатный архив песенных текстов, аккордов, табулатур и нот


Lamb Of God - Descending - текст песни, таба, бас-таба, видео

Регистрация Запомнить меня
Войти через:  Facebook Google Twitter Vk Yandex Mail.ru

Lamb Of God - Descending - текст песни, таба, бас-таба, видео

Печатать
Просмотров: 244
Lamb Of God
Descending
Sacrament
Tuning: DADBGE

---------------------------------------------------------------------|
---------------------------------------------------------------------|
---------------------------------------------------------------------|
---------------------------------------------------------------------|
--13-----------12-13-----------12-13-----------12-13-----------13-12-|
-----12-0-12-0-------12-0-12-0-------12-0-12-0-------12-0-12-0-------|

---------------------------------------------------------------------|
---------------------------------------------------------------------|
---------------------------------------------------------------------|
---------------------------------------------------------------------|
-------------12-------------12-------------12------------------------|
-0-12-0-12-0----0-12-0-12-0----0-12-0-12-0----0-12-0-12-0------------|


---------------------------------------------------------------------|
---------------------------------------------------------------------|
---------------------------------------------------------------------|
---------------------------------------------------------------------|
--13-----------12-13-----------12-13-----------12-13-----------13-12-|
-----12-0-12-0-------12-0-12-0-------12-0-12-0-------12-0-12-0-------|

---------------------------------------------------------------------|
---------------------------------------------------------------------|
---------------------------------------------------------------------|
---------------------------------------------------------------------|
-------------12-------------12-------------12------------------------|
-0-12-0-12-0----0-12-0-12-0----0-12-0-12-0----0-12-0-12-0------------|

---------------------------------------------------------------------|
---------------------------------------------------------------------|
---------------------------------------------------------------------|
---------------------------------------------------------------------|
--13-----------12-13-----------12-13-----------12-13-----------13-12-|
-----12-0-12-0-------12-0-12-0-------12-0-12-0-------12-0-12-0-------|

---------------------------------------------------------------------|
---------------------------------------------------------------------|
---------------------------------------------------------------------|
---------------------------------------------------------------------|
-------------12-------------12-------------12------------------------|
-0-12-0-12-0----0-12-0-12-0----0-12-0-12-0----0-12-0-12-0------------|

---------------------------------------------------------------------|
---------------------------------------------------------------------|
---------------------------------------------------------------------|
---------------------------------------------------------------------|
--13-----------12-13-----------12-13-----------12-13-----------13-12-|
-----12-0-12-0-------12-0-12-0-------12-0-12-0-------12-0-12-0-------|

---------------------------------------------------------------------|
---------------------------------------------------------------------|
---------------------------------------------------------------------|
---------------------------------------------------------------------|
-------------12-------------12-------------12------------------------|
-0-12-0-12-0----0-12-0-12-0----0-12-0-12-0----0-12-0-12-0------------|


-----------------------------------------------------------------------|
-----------------------------------------------------------------------|
-----------------------------------------------------------------------|
--101010101010-999999-777777-555555------------------------------------|
--8-8-8-8-8-8--777777-555555-333333------------------------------------|
--8-8-8-8-8-8--777777-555555-333333---0-0-0h3p0-0-0h3h1bp0-0h3-0-0-1h3-|


----------------------------------------------------------------------|
----------------------------------------------------------------------|
----------------------------------------------------------------------|
--101010101010-999999-777777-555555-----------------------------------|
--8-8-8-8-8-8--777777-555555-333333-----------------------------------|
--8-8-8-8-8-8--777777-555555-333333-----------------------------------|

---------------------------------------------------------------------|
---------------------------------------------------------------------|
---------------------------------------------------------------------|
---------------------------------------------------------------------|
--13-----------12-13-----------12-13-----------12-13-----------13-12-|
-----12-0-12-0-------12-0-12-0-------12-0-12-0-------12-0-12-0-------|

---------------------------------------------------------------------|
---------------------------------------------------------------------|
---------------------------------------------------------------------|
---------------------------------------------------------------------|
-------------12-------------12-------------12------------------------|
-0-12-0-12-0----0-12-0-12-0----0-12-0-12-0----0-12-0-12-0------------|

---------------------------------------------------------------------|
---------------------------------------------------------------------|
---------------------------------------------------------------------|
---------------------------------------------------------------------|
--13-----------12-13-----------12-13-----------12-13-----------13-12-|
-----12-0-12-0-------12-0-12-0-------12-0-12-0-------12-0-12-0-------|

---------------------------------------------------------------------|
---------------------------------------------------------------------|
---------------------------------------------------------------------|
---------------------------------------------------------------------|
-------------12-------------12-------------12------------------------|
-0-12-0-12-0----0-12-0-12-0----0-12-0-12-0----0-12-0-12-0------------|

---------------------------------------------------------------------|
---------------------------------------------------------------------|
---------------------------------------------------------------------|
---------------------------------------------------------------------|
--13-----------12-13-----------12-13-----------12-13-----------13-12-|
-----12-0-12-0-------12-0-12-0-------12-0-12-0-------12-0-12-0-------|

---------------------------------------------------------------------|
---------------------------------------------------------------------|
---------------------------------------------------------------------|
---------------------------------------------------------------------|
-------------12-------------12-------------12------------------------|
-0-12-0-12-0----0-12-0-12-0----0-12-0-12-0----0-12-0-12-0------------|

---------------------------------------------------------------------|
---------------------------------------------------------------------|
---------------------------------------------------------------------|
---------------------------------------------------------------------|
--13-----------12-13-----------12-13-----------12-13-----------13-12-|
-----12-0-12-0-------12-0-12-0-------12-0-12-0-------12-0-12-0-------|

---------------------------------------------------------------------|
---------------------------------------------------------------------|
---------------------------------------------------------------------|
---------------------------------------------------------------------|
-------------12-------------12-------------12------------------------|
-0-12-0-12-0----0-12-0-12-0----0-12-0-12-0----0-12-0-12-0------------|

-----------------------------------------------------------------------|
-----------------------------------------------------------------------|
-----------------------------------------------------------------------|
--101010101010-999999-777777-555555------------------------------------|
--8-8-8-8-8-8--777777-555555-333333------------------------------------|
--8-8-8-8-8-8--777777-555555-333333---0-0-0h3p0-0-0h3h1bp0-0h3-0-0-1h3-|


----------------------------------------------------------------------|
----------------------------------------------------------------------|
----------------------------------------------------------------------|
--101010101010-999999-777777-555555-----------------------------------|
--8-8-8-8-8-8--777777-555555-333333-----------------------------------|
--8-8-8-8-8-8--777777-555555-333333-----------------------------------|

---------------------------------------------------------------------|
---------------------------------------------------------------------|
---------------------------------------------------------------------|
---------------------------------------------------------------------|
--13-----------12-13-----------12-13-----------12-13-----------13-12-|
-----12-0-12-0-------12-0-12-0-------12-0-12-0-------12-0-12-0-------|

---------------------------------------------------------------------|
---------------------------------------------------------------------|
---------------------------------------------------------------------|
---------------------------------------------------------------------|
-------------12-------------12-------------12------------------------|
-0-12-0-12-0----0-12-0-12-0----0-12-0-12-0----0-12-0-12-0------------|

---------------------------------------------------------------------|
---------------------------------------------------------------------|
---------------------------------------------------------------------|
---------------------------------------------------------------------|
--13-----------12-13-----------12-13-----------12-13-----------13-12-|
-----12-0-12-0-------12-0-12-0-------12-0-12-0-------12-0-12-0-------|

---------------------------------------------------------------------|
---------------------------------------------------------------------|
---------------------------------------------------------------------|
---------------------------------------------------------------------|
-------------12-------------12-------------12------------------------|
-0-12-0-12-0----0-12-0-12-0----0-12-0-12-0----0-12-0-12-0------------|

---------------------------------------------------------------------|
---------------------------------------------------------------------|
---------------------------------------------------------------------|
---------------------------------------------------------------------|
--13-----------12-13-----------12-13-----------12-13-----------13-12-|
-----12-0-12-0-------12-0-12-0-------12-0-12-0-------12-0-12-0-------|

---------------------------------------------------------------------|
---------------------------------------------------------------------|
---------------------------------------------------------------------|
---------------------------------------------------------------------|
-------------12-------------12-------------12------------------------|
-0-12-0-12-0----0-12-0-12-0----0-12-0-12-0----0-12-0-12-0------------|

---------------------------------------------------------------------|
---------------------------------------------------------------------|
---------------------------------------------------------------------|
---------------------------------------------------------------------|
--13-----------12-13-----------12-13-----------12-13-----------13-12-|
-----12-0-12-0-------12-0-12-0-------12-0-12-0-------12-0-12-0-------|

---------------------------------------------------------------------|
---------------------------------------------------------------------|
---------------------------------------------------------------------|
---------------------------------------------------------------------|
-------------12-------------12-------------12------------------------|
-0-12-0-12-0----0-12-0-12-0----0-12-0-12-0----0-12-0-12-0------------|

---------------------------------------------------------------------|
---------------------------------------------------------------------|
---------------------------------------------------------------------|
---------------------------------------------------------------------|
--13-----------12-13-----------12-13-----------12-13-----------13-12-|
-----12-0-12-0-------12-0-12-0-------12-0-12-0-------12-0-12-0-------|

---------------------------------------------------------------------|
---------------------------------------------------------------------|
---------------------------------------------------------------------|
---------------------------------------------------------------------|
-------------12-------------12-------------12------------------------|
-0-12-0-12-0----0-12-0-12-0----0-12-0-12-0----0-12-0-12-0------------|

---------------------------------------------------------------------|
---------------------------------------------------------------------|
---------------------------------------------------------------------|
---------------------------------------------------------------------|
--13-----------12-13-----------12-13-----------12-13-----------13-12-|
-----12-0-12-0-------12-0-12-0-------12-0-12-0-------12-0-12-0-------|

---------------------------------------------------------------------|
---------------------------------------------------------------------|
---------------------------------------------------------------------|
---------------------------------------------------------------------|
-------------12-------------12-------------12------------------------|
-0-12-0-12-0----0-12-0-12-0----0-12-0-12-0----0-12-0-12-0------------|

-----------------------------------------------------------------------|
-----------------------------------------------------------------------|
-----------------------------------------------------------------------|
--101010101010-999999-777777-555555------------------------------------|
--8-8-8-8-8-8--777777-555555-333333------------------------------------|
--8-8-8-8-8-8--777777-555555-333333---0-0-0h3p0-0-0h3h1bp0-0h3-0-0-1h3-|


----------------------------------------------------------------------|
----------------------------------------------------------------------|
----------------------------------------------------------------------|
--101010101010-999999-777777-555555-----------------------------------|
--8-8-8-8-8-8--777777-555555-333333-----------------------------------|
--8-8-8-8-8-8--777777-555555-333333-----------------------------------|

---------------------------------------------------------------------|
---------------------------------------------------------------------|
---------------------------------------------------------------------|
-7xx7h87xx7h8--------------------------------------------------------|
-7xx7h87xx7h8--------------------------------------------------------|
-7xx7h87xx7h8-8h9p8-7-8-7-5-7-5-3-5-8--------------------------------|

---------------------------------------------------------------------|
---------------------------------------------------------------------|
---------------------------------------------------------------------|
-7xx7h87xx7h8--------------------------------------------------------|
-7xx7h87xx7h8--------------------------------------------------------|
-7xx7h87xx7h8-8h9p8-7-8-7-5-7-5-3-5-8--------------------------------|

---------------------------------------------------------------------|
---------------------------------------------------------------------|
---------------------------------------------------------------------|
-12xx12h11h12xx12h11-------------------------------------------------|
-12xx12h11h12xx12h11-------------------------------------------------|
-12xx12h11h12xx12h11-16h17p16-15-16-15-13-15-13-11-13-11-9-16--------|

---------------------------------------------------------------------|
---------------------------------------------------------------------|
---------------------------------------------------------------------|
-12xx12h11h12xx12h11-------------------------------------------------|
-12xx12h11h12xx12h11-------------------------------------------------|
-12xx12h11h12xx12h11-16h17p16-15-16-15-13-15-13-11-13-11-9-16--------|

-----------------------------------------------------------------------|
-----------------------------------------------------------------------|
-----------------------------------------------------------------------|
--101010101010-999999-777777-555555------------------------------------|
--8-8-8-8-8-8--777777-555555-333333------------------------------------|
--8-8-8-8-8-8--777777-555555-333333---0-0-0h3p0-0-0h3h1bp0-0h3-0-0-1h3-|


----------------------------------------------------------------------|
----------------------------------------------------------------------|
----------------------------------------------------------------------|
--101010101010-999999-777777-555555-----------------------------------|
--8-8-8-8-8-8--777777-555555-333333-----------------------------------|
--8-8-8-8-8-8--777777-555555-333333-----------------------------------|

---------------------------------------------------------------------|
---------------------------------------------------------------------|
---------------------------------------------------------------------|
---------------------------------------------------------------------|
---------------------------------------------------------------------|
--8888888-777777-555555-333333---------------------------------------|

Pause

---------------------------------------------------------------------|
---------------------------------------------------------------------|
---------------------------------------------------------------------|
---------------------------------------------------------------------|
-------------12-------------12-------------12------------------------|
-0-12-0-12-0----0-12-0-12-0----0-12-0-12-0----0-12-0-12-0------------|

---------------------------------------------------------------------|
---------------------------------------------------------------------|
---------------------------------------------------------------------|
---------------------------------------------------------------------|
--13-----------12-13-----------12-13-----------12-13-----------13-12-|
-----12-0-12-0-------12-0-12-0-------12-0-12-0-------12-0-12-0-------|

---------------------------------------------------------------------|
---------------------------------------------------------------------|
---------------------------------------------------------------------|
---------------------------------------------------------------------|
-------------12-------------12-------------12------------------------|
-0-12-0-12-0----0-12-0-12-0----0-12-0-12-0----0-12-0-12-0------------|

---------------------------------------------------------------------|
---------------------------------------------------------------------|
---------------------------------------------------------------------|
---------------------------------------------------------------------|
--13-----------12-13-----------12-13-----------12-13-----------13-12-|
-----12-0-12-0-------12-0-12-0-------12-0-12-0-------12-0-12-0-------|

---------------------------------------------------------------------|
---------------------------------------------------------------------|
---------------------------------------------------------------------|
---------------------------------------------------------------------|
-------------12-------------12-------------12------------------------|
-0-12-0-12-0----0-12-0-12-0----0-12-0-12-0----0-12-0-12-0------------|

---------------------------------------------------------------------|
---------------------------------------------------------------------|
---------------------------------------------------------------------|
---------------------------------------------------------------------|
--13-----------12-13-----------12-13-----------12-13-----------13-12-|
-----12-0-12-0-------12-0-12-0-------12-0-12-0-------12-0-12-0-------|

---------------------------------------------------------------------|
---------------------------------------------------------------------|
---------------------------------------------------------------------|
---------------------------------------------------------------------|
-------------12-------------12-------------12------------------------|
-0-12-0-12-0----0-12-0-12-0----0-12-0-12-0----0-12-0-12-0------------|

On these last 2 bars, the high 12 sounds like it has a little
bit of a pinch harmonic on it.

---------------------------------------------------------------------|
---------------------------------------------------------------------|
---------------------------------------------------------------------|
---------------------------------------------------------------------|
-------------12-------------12-------------12------------------------|
-0-12-0-12-0----0-12-0-12-0----0-12-0-12-0----0-12-0-12-0------------|

---------------------------------------------------------------------|
---------------------------------------------------------------------|
---------------------------------------------------------------------|
---------------------------------------------------------------------|
-------------12-------------12-------------12------------------------|
-0-12-0-12-0----0-12-0-12-0----0-12-0-12-0----0-12-0-12-0------------|

90892039
Добавлено: 22.07.2012
Другие материалы по этой песне:

Страница создана 19.04.2012
http://primanota.ru/lamb-of-god/descending-chords.htm
Привет, Гость.
Предлагаем пройти революционный курс по гитаре.
Подарок от PrimaNota.Ru, забирай!