PrimaNota.ru - самый крупный в мире бесплатный архив песенных текстов, аккордов, табулатур и нот


Lamb Of God - Rednack - бас-таба, видео

Регистрация Запомнить меня
Войти через:  Facebook Google Twitter Vk Yandex Mail.ru

Lamb Of God - Rednack - бас-таба, видео

Печатать
Просмотров: 180
Уроки эстрадного вокала в Санкт-Петербурге
G||---------------------|--------------------------|------------------|
D||---------------------|--------------------------|------------------|
A||---------------------|--------------------------|------------------|
D||------------0--16/---|--0-0-0-0-0-0-------------|------------------|

|-------------------------|-------------------||
|*------------------------|------------------*||
|*------------------------|------------------*||
|---0-0-0-0-0-------------|-------------------||

----------------------------------|-----------------------------|
----------------------------------|-----------------------------|
------------------3---------------|---------------3-5-3--3------|
--0-3-5-6-3-5-6-7---7-6-5-7-6-5-3-|--0----0-0-0-0-----------3-0-|

----------------------------------|-------------------------------|
----------------------------------|-------------------------------|
----------------------------------|------------------3-5-3--------|
--3-0-0-0-0-0-0-0-3-1-0-3-1-0-5-6-|--3-0-0-0-0-0-0-0----------3-0-|

--------------------------|-------------------------------|
--------------------------|-------------------------------|
-----------------------3--|------------------3-5-3--------|
--5-3-0-3-7--6----5-------|--3-0-0-0-0-0-0-0----------3-0-|

----------------------------------|---------------------------|----------------|
----------------------------------|---------------------------|----------------|
----------------------------------|--3------------------------|----------------|
--7-6-0-5-6-0-5-3-0-3-5-6-0-3-5-6-|----7-6-5-7-6-5-3-0--------|----------15/---|


                                                                2x
|-------------------------------|-------------------------------||
|*------------------------------|------------------------------*||
|*------------------------------|----------------------3-------*||
|---1--0--0-0-0-0--0-0--0-0-0-0-|---0-0--0-0-0-0--0-0----0-1-3--||

------------------------------|-------------------------|
------------------------------|-------------------------|
------------------------------|----------------------3--|
--1--0--0-0-0-0--0-0--0-0-0-0-|---0-0-0-7--6----5-------|


                                                                        3x
|-----------------------------------|-----------------------------------||
|*----------------------------------|----------------------------------*||
|*----------------------------------|----------------------------------*||
|---0-7-6-0-7-6-0-0-1-0-0-0-0-0-0-0-|--0-7-6-0-7-6-0-6-5-0-6-5-3-6-3-5--||

----------------------------------|-----------------------------|
----------------------------------|-----------------------------|
--5-----------6-----------6-------|---------------3-5-3--3------|
----6-5-0-5-6---7-5-0-5-7---7-6-3-|--0----0-0-0-0-----------3-0-|

----------------------------------|-------------------------------|
----------------------------------|-------------------------------|
----------------------------------|------------------3-5-3--------|
--3-0-0-0-0-0-0-0-3-1-0-3-1-0-5-6-|--3-0-0-0-0-0-0-0----------3-0-|

--------------------------|-------------------------------|
--------------------------|-------------------------------|
-----------------------3--|------------------3-5-3--------|
--5-3-0-3-7--6----5-------|--3-0-0-0-0-0-0-0----------3-0-|

----------------------------------|-------------------------------|
----------------------------------|-------------------------------|
----------------------------------|------------------3-5-3--------|
--3h0-0-0-0-0-0-0-7-6-0-6-5-0-5-3-|--3-0-0-0-0-0-0-0----------3-0-|

----------------------------------|---------------------|
----------------------------------|---------------------|
------------------3---------------|---------------------|
--0-3-5-6-3-5-6-7---7-6-5-7-6-5-0-|--0------------15/---|


                                                                2x
|-------------------------------|-------------------------------||
|*------------------------------|------------------------------*||
|*------------------------------|----------------------3-------*||
|---1--0--0-0-0-0--0-0--0-0-0-0-|---0-0--0-0-0-0--0-0----0-1-3--||

------------------------------|-------------------------|
------------------------------|-------------------------|
------------------------------|----------------------3--|
--1--0--0-0-0-0--0-0--0-0-0-0-|---0-0-0-7--6----5-------|


                                                                        3x
|-----------------------------------|-----------------------------------||
|*----------------------------------|----------------------------------*||
|*----------------------------------|----------------------------------*||
|---0-7-6-0-7-6-0-0-1-0-0-0-0-0-0-0-|--0-7-6-0-7-6-0-6-5-0-6-5-3-6-3-5--||

----------------------------------|-----------------------------|
----------------------------------|-----------------------------|
--5-----------6-----------6-------|---------------3-5-3--3------|
----6-5-0-5-6---7-5-0-5-7---7-6-3-|--0----0-0-0-0-----------3-0-|

----------------------------------|-------------------------------|
----------------------------------|-------------------------------|
----------------------------------|------------------3-5-3--------|
--3-0-0-0-0-0-0-0-3-1-0-3-1-0-5-6-|--3-0-0-0-0-0-0-0----------3-0-|

--------------------------|-------------------------------|
--------------------------|-------------------------------|
-----------------------3--|------------------3-5-3--------|
--5-3-0-3-7--6----5-------|--3-0-0-0-0-0-0-0----------3-0-|

----------------------------------|-------------------------------|
----------------------------------|-------------------------------|
----------------------------------|------------------3-5-3--------|
--3h0-0-0-0-0-0-0-7-6-0-6-5-0-5-3-|--3-0-0-0-0-0-0-0----------3-0-|

----------------------------------|-----------------------|
----------------------------------|-----------------------|
------------------3---------------|-----------------------|
--0-3-5-6-3-5-6-7---7-6-5-7-6-5-0-|--0----7--6----5----3--|

-----------------------|-----------------------|-------------------|
-----------------------|-----------------------|-------------------|
-----------------------|-----------------------|-------------------|
--0----7--6----5----3--|--0----7--6----5----3--|--0----------------|

------------------|------------------|----------------------------------|
------------------|------------------|----------------------------------|
------------------|------------------|----------------------------------|
------------------|------------------|--0-0-0-0-0-0-0-0-0-0-0-0-0-0-0-0-|

|-------------------------------------------------|
|*------------------------------------------------|
|*------------11-13-------------------------------|
|---0-0-12-13-------12-13-10-13-11-13-10-13-11-14-|

-----------------------------------||-------------------------------|
----------------------------------*||*------------------------------|
----------------------------------*||*------------------------------|
--0-0-0-0-0-0-0-0-0-0-0-0-0-0-0-0--||---0--0--0-0-0-0--0-0--0-0-0-0-|

------------------------------------------------||
-----------------------------------------------*||
-----------11-13-------------------------------*||
--0--12-13-------12-13-10-13-11-13-10-13-11-14--||

-------------------------------|----------------------------------|
-------------------------------|----------------------------------|
------------------3-5-3--------|----------------------------------|
--3-0-0-0-0-0-0-0----------3-0-|--3-0-0-0-0-0-0-0-3-1-0-3-1-0-5-6-|

-------------------------------|----------------------------------|
-------------------------------|----------------------------------|
------------------3-5-3--------|------------------3---------------|
--3-0-0-0-0-0-0-0----------3-0-|--0-3-5-6-3-5-6-7---7-6-5-7-6-5-3-|

|------------------------------|----------------------------------|
|*-----------------------------|----------------------------------|
|*---------------3-5-3--3------|----------------------------------|
|---0----0-0-0-0-----------3-0-|--3-0-0-0-0-0-0-0-3-1-0-3-1-0-5-6-|

-------------------------------|--------------------------|
-------------------------------|--------------------------|
------------------3-5-3--------|-----------------------3--|
--3-0-0-0-0-0-0-0----------3-0-|--5-3-0-3-7--6----5-------|

-------------------------------|----------------------------------|
-------------------------------|----------------------------------|
------------------3-5-3--------|----------------------------------|
--3-0-0-0-0-0-0-0----------3-0-|--3h0-0-0-0-0-0-0-7-6-0-6-5-0-5-3-|

-------------------------------|---------------------------||
-------------------------------|--------------------------*||
------------------3-5-3--------|-----------------------3--*||
--3-0-0-0-0-0-0-0----------3-0-|--5-3-0-3-7--6----5--------||

----------------------------------|-----------------------|
----------------------------------|-----------------------|
------------------3---------------|-----------------------|
--0-3-5-6-3-5-6-7---7-6-5-7-6-5-0-|--0----7--6----5----3--|

------------------------|------------------------|------------------------|
------------------------|------------------------|------------------------|
------------------------|------------------------|------------------------|
--0--0--7--6----5----3--|--0--0--7--6----5----3--|--0--0--7--6----5----3--|

------------------------|------------------------|------------------------|
------------------------|------------------------|------------------------|
------------------------|------------------------|------------------------|
--0--0--7--6----5----3--|--0--0--7--6----5----3--|--0--0--7--6----5----3--|

------------------------|------------------------|------------------------|
------------------------|------------------------|------------------------|
------------------------|------------------------|------------------------|
--0--0--7--6----5----3--|--0--0--7--6----5----3--|--0--0--7--6----5----3--|

------------------------|------------------------|------------------------|
------------------------|------------------------|------------------------|
------------------------|------------------------|------------------------|
--0--0--7--6----5----3--|--0--0--7--6----5----3--|--0--0--7--6----5----3--|

-------------------|------------------|------------------|------------------||
-------------------|------------------|------------------|------------------||
-------------------|------------------|------------------|------------------||
--0----------------|------------------|------------------|------------------||
Добавлено: 10.04.2012
Другие материалы по этой песне:
  • Аккорды и текст

Страница создана 10.04.2012
http://primanota.ru/lamb-of-god/rednack-chords.htm
Привет, Гость.
Предлагаем пройти революционный курс по гитаре.
Подарок от PrimaNota.Ru, забирай!