PrimaNota.ru - самый крупный в мире бесплатный архив песенных текстов, аккордов, табулатур и нот


Lamb Of God - Walk With Me In Hell - таба, бас-таба, видео

Регистрация Запомнить меня
Войти через:  Facebook Google Twitter Vk Yandex Mail.ru

Lamb Of God - Walk With Me In Hell - таба, бас-таба, видео

Печатать
Просмотров: 640
LAMB OF GOD
SACRAMENT
"WALK WITH ME IN HELL SOLO"


^f= pre-bend a full step when struck

e|----------------------------------------------------|
b|----------------------------------------------------|
g|--------------------------5-7-9*br-7-9-7-5------7*~-|
d|-------14*-14*~^------5-7------------------7/10-----|
a|-14*~-------------5-8-------------------------------|
d|----------------------------------------------------|

e|----------------------------------------------------|
b|----------------------------------------------------|
g|---------7h10p7------7h10p7------7h10p7-------------|
d|-10-7-10--------10-7--------10-7--------10-7-10/12~-|
a|----------------------------------------------------|
d|----------------------------------------------------|

e|-----------------------------------------------------------------|
b|-----------------------------------------------------------------|
g|-12br-10h12p10-9h10p9----9---------------------------------------|
d|----------------------12---12-11----12-11------------------------|
a|---------------------------------13-------13-12-8-10-8-7-5-4-5-7-|
d|-----------------------------------------------------------------|

e|---------------------------------------------------|
b|---------------------------------------------------|
g|----------9b-r-9-7-6------------12*b~~-12-10-12~~\-|
d|-------5-------------7-8-7-5-----------------------|
a|-5-7-8-----------------------8---------------------|
d|---------------------------------------------------|


e|--------------------------------------------------------|
b|----15----15-15-13b--^f13~\--10h13p10----10-------------|
g|-14----14-----------------------------12----13-12-10----|
d|-----------------------------------------------------12-|
a|--------------------------------------------------------|
d|--------------------------------------------------------|


e|------------------------------------------|
b|------------------------------------------|
g|-12*b-r~-12b-r~-12b-r~-10----10-12--13\12-|
d|--------------------------12--------------|
a|------------------------------------------|
d|------------------------------------------|


e|-----------------------------------------------------------------------------------------------------------|
b|-----------------------------------------------------------------------------------------------------------|
g|---12-10----10-------------------------------------------10*-------12*br-10----12-10----10-----------------|
d|---------12----12-10----10----------------10----10-12-10-----12-10----------12-------12----12-10----10-12~-|
a|---------------------12----12-10-11-12-12----12--------------------------------------------------12--------|
d|-----------------------------------------------------------------------------------------------------------|


e|----------------------------------------------|
b|----------------------------------------------|
g|--10b---12-10-12-13-12--12-10----10-----------|
d|-(12)-------------------------12-----12-0-----|
a|------------------------------------------10~-|
d|----------------------------------------------|


e|------------------------------------------------------------------------------------------------------------|
b|-------------------------------------------------------14-17-15-14-------------15-14-15-17-20-20-17-20b~~~~-|
g|-------------------12-15-14-12----------------12-14-15-------------15-14-14-15------------------------------|
d|-12-14-15-12-14-15-------------15-14-12-14-15---------------------------------------------------------------|
a|------------------------------------------------------------------------------------------------------------|
d|------------------------------------------------------------------------------------------------------------|


fucking aye \m/
Добавлено: 26.06.2012
Другие материалы по этой песне:

Страница создана 22.02.2012
http://primanota.ru/lamb-of-god/walk-with-me-in-hell-chords.htm
Привет, Гость.
Предлагаем пройти революционный курс по гитаре.
Подарок от PrimaNota.Ru, забирай!