PrimaNota.ru - самый крупный в мире бесплатный архив песенных текстов, аккордов, табулатур и нот


Lamb Of God - Nippon - таба, бас-таба, видео

Регистрация Запомнить меня
Войти через:  Facebook Google Twitter Vk Yandex Mail.ru

Lamb Of God - Nippon - таба, бас-таба, видео

Печатать
Просмотров: 204
Уроки эстрадного вокала в Санкт-Петербурге
Band: Lamb of God 
Song: Nippon 
Album: New American Gospel 

Tabbed by: -LambOfGod-

Intro 
e|------------------------------------------------------------| 
B|------------------------------------------------------------| 
G|------------------------------------------------------------| 
D|----12---12---12---12--------------------12---12---12---12--| 
A|----17---17---17---17--------------------17---17---17---17--| 
D|--0----0----0----0------0-0-0-0-0-0-0-0-----0----0----0-----| 
    *    *    *    *      * * * * * * * *     *    *    *   

e|----------------------------------------------------------------------| 
B|----------------------------------------------------------------------| 
G|----------------------------------------------------------------------| 
D|-----------------12---12---12---12-----------------13---13---13---13--| 
A|-----------------16---16---16---16-----------------15---15---15---15--| 
D|-0-0-0-0-0-0-0-0----0----0----0----0-0-0-0-0-0-0-0----0----0----0-----| 
   * * * * * * * *    *    *    *    * * * * * * * *    *    *    *
 
e|---------------------| 
B|---------------------|
G|---------------------|
D|---------------------|
A|-------11h12p11------|
D|-0-0-0----------12%--| 
   * * *                  

e|-----------|
B|-----------|
G|-----------|
D|-----------|
A|-3-3--1-1--|
D|-3-3--1-1--|
   * *  * *

Riff 1: 
e|-------------| 
B|-------------| 
G|-------------| X3
D|-------------| 
A|------3h5/6--| 
D|-0000-3h5/6--| 
  .... 

e|-----------------| 
B|-----------------| 
G|-----------------| 
D|-----------------| 
A|-6p5p3-6p5p3-5h6-| 
D|-6p5p3-6p5p3-5h6-| 

Riff 2: 
e|------------------------------| 
B|------------------------------| 
G|-------------------------3-2%-| 
D|---------------------4-3------| 
A|------------------------------| 
D|-0-0-0-0-1-0-0-0-0-0----------| 
   * * * *   * * * * * 

e|------------------------| 
B|------------------------| 
G|-------------------3-2%-| 
D|---------------4-3------| 
A|-0-0-1-0-0-0-0----------| 
D|-0-0-1-0-0-0-0----------| 
   * *   * * * *  

e|------------------------------| 
B|------------------------------| 
G|-------------------------4-3%-| 
D|---------------------5-4------| 
A|------------------------------| 
D|-1-1-1-1-2-1-1-1-1-1----------| 
  * * * *   * * * * *

e|------------------------| 
B|------------------------| 
G|-------------------4-3%-| 
D|---------------5-4------| 
A|-1-1-2-1-1-1-1----------| 
D|-1-1-2-1-1-1-1----------| 
  * * * * * * *


Riff 3 
e|------------------------------------------| 
B|------------------------------------------| 
G|------------------------------------------| 
D|------------------------------------------| X6 
A|------------------------------------------| 
D|-0-0-0-0-0-0-12%-0-0-0-0-0-10-0-12-13-12--| 
   * * * * * *     * * * * *    *   

e|------------------------------------------| 
B|------------------------------------------| 
G|------------------------------------------| X4
D|------------------------------------------| 
A|------------------------------------------|
D|-0-0-0-0-0-0-15%-0-0-0-0-0-13-0-15-16-15--| 
   * * * * * *     * * * * *    *

Riff 4: 
e|---------------------------------| 
B|---------------------------------| 
G|---------------------------------| 
D|---------------------------------| 
A|-------5-----8-----6-----5---6-5-| 
D|-0-0-0---0-0---0-0---0-0---0-6-5-| 
   * * *   * *   * *   * *   *

e|---------------------------------| 
B|---------------------------------| 
G|---------------------------------| 
D|---------------------------------| 
A|-------5-----6-----5-----3---6-5-| 
D|-0-0-0---0-0---0-0---0-0---0-6-5-| 
   * * *   * *   * *   * *   *

e|---------------------------------| 
B|---------------------------------| 
G|---------------------------------| 
D|---------------------------------| 
A|-------5-----8-----6-----5---6-5-| 
D|-0-0-0---0-0---0-0---0-0---0-6-5-| 
   * * *   * *   * *   * *   *

e|----------------------------------| 
B|----------------------------------| 
G|----------------------------------| 
D|----------------------------------| 
A|-------5-----6--------------------| 
D|-0-0-0---0-0---0-0-0--6-5-3-0-3-5-| 
   * * *   * *   * * *        *

Riff 5
e|-------------------------------------------| 
B|-------------------------------------------| 
G|-------------------------------------------| 
D|-------------------------------------------| 
A|-2--------------3-2---------------5-0-6\5--| 
D|-2-2-2-2-2-2-2--3-2--2-2-2-2-2-2--5-0-6\5--| 
     * * * * * *       * * * * * *    * 

Riff 4 

Intro 

Riff 1
Добавлено: 23.06.2012
Другие материалы по этой песне:
  • Аккорды и текст

Страница создана 27.02.2012
http://primanota.ru/lamb-of-god/nippon-chords.htm
Привет, Гость.
Предлагаем пройти революционный курс по гитаре.
Подарок от PrimaNota.Ru, забирай!