PrimaNota.ru - самый крупный в мире бесплатный архив песенных текстов, аккордов, табулатур и нот


Lamb Of God - Red Neck - текст песни, таба, бас-таба, видео

Регистрация Запомнить меня
Войти через:  Facebook Google Twitter Vk Yandex Mail.ru

Lamb Of God - Red Neck - текст песни, таба, бас-таба, видео

Печатать
Просмотров: 483
Уроки эстрадного вокала в Санкт-Петербурге
-------------------------------------------------------------------------------
                             Redneck - Lamb of God
-------------------------------------------------------------------------------
Tabbed by: Mustaine
Email: kreator11@gmail.com

Tuning: Drop D

e|---------------------------------------------------------------------------|
B|---------------------------------------------------------------------------|
G|---------------------------------------------------------------------------|
D|---------------------------------------------------------------------------|
A|---------------------------------------------------------------------------|
D|-3p0--0-0-0-0-0-0--10-12-10---0-0-3p0--0-0-0-0-0-0--3-1-0-3-1-0-5-6--------|
                                                                       x3
e|---------------------------------------------------------------------------|
B|---------------------------------------------------------------------------|
G|---------------------------------------------------------------------------|
D|---------------------------------------------------------------------------|
A|------------------3-----------------0--------------------------------------|
D|-0-3-5-6-3-5-6-7-----7-6-5-7-6-5-3--0--0-0-0-0--10-12-10--0-0-3p0-0-0-0-0--|

e|---------------------------------------------------------------------------|
B|---------------------------------------------------------------------------|
G|---------------------------------------------------------------------------|
D|-----------------------------------------------------------------------5---|
A|-----------------------------------------------------------------------3---|
D|-0-0--3-1-0-3-1-0-5-6--3p0-0-0-0-0-0-0--10-12-10--0-0--5-3-0-3-7-6--5------|

e|---------------------------------------------------------------------------|
B|---------------------------------------------------------------------------|
G|---------------------------------------------------------------------------|
D|---------------------------------------------------------------------------|
A|---------------------------------------------------------------------------|
D|-3p0-0-0-0-0-0-0--10-12-10--0-0--3p0-0-0-0-0-0-0--7-6-0-6-5-0-5-3-0-3-5-6--|

e|---------------------------------------------------------------------------|
B|---------------------------------------------------------------------------|
G|---------------------------------------------------------------------------|
D|---------------------------------------------------------------------------|
A|-----------3--------------0------------------------------------------------|
D|--3-5-6-7----7-6-5-7-6-5--0------------------------------------------------|

e|---------------------------------------------------------------------------|
B|---------------------------------------------------------------------------|
G|---------------------------------------------------------------------------|
D|---------------------------------------------------------------------------|
A|-1-0--------------------------------------------------3--------0-1-0-------|
D|-1-0--------0-0-0-0--0-0--0-0-0-0--0-0--0-0-0-0--0-0----0-1-3--0-1-0-------|
                                                                         x3      
e|---------------------------------------------------------------------------|
B|---------------------------------------------------------------------------|
G|---------------------------------------------------------------------------|
D|----------------------------------------5----------------------------------|
A|----------------------------------------3----------------------------------|
D|-0-0-0-0--0-0--0-0-0-0--0-0-0---7-6--5--------0-7-6-0-7-6-0-0--1p0---------|

e|---------------------------------------------------------------------------|
B|---------------------------------------------------------------------------|
G|---------------------------------------------------------------------------|
D|---------------------------------------------------------------------------|
A|---------------------------------------------------------------------------|
D|-0-0-0-0-0-0--0-7-6-0-7-6-0-6-5-0-6-5-3-6-3-5------------------------------|

e|---------------------------------------------------------------------------|
B|---------------------------------------------------------------------------|
G|---------------------------------------------------------------------------|
D|---------------------------------------------------------------------------|
A|-5-----------6-----------6-------------------------------------------------|
D|---6-5-0-5-6---7-5-0-5-7---7-6-3-------------------------------------------|

e|---------------------------------------------------------------------------|
B|---------------------------------------------------------------------------|
G|---------------------------------------------------------------------------|
D|---------------------------------------------------------------------------|
A|-------11h13---------------------------------------------------------------|
D|-12h13-------12h13--10h13-11h13-10h13-11h14--0-0-0-0-0-0-0-0-0-0-0-0-0-0-0-|

e|---------------------------------------------------------------------------|
B|---------------------------------------------------------------------------|
G|---------------------------------------------------------------------------|
D|---------------------------------------------------------------------------|
A|-------------------------------------------11h13---------------------------|
D|-0---0-0--0-0-0-0--0-0--0-0-0-0--0---12h13-------12h13--10h13-11h13-10h13--|

e|---------------------------------------------------------------------------|
B|---------------------------------------------------------------------------|
G|---------------------------------------------------------------------------|
D|---------------------------------------------------------------------------|
A|---------0-0--7-6-5-0---0-0--7-6-5-0---------------------------------------|
D|-11h14---0-0--7-6-5-0---0-0--7-6-5-0---------------------------------------|
                                        etc.                      


| /  slide up
| \  slide down
| h  hammer-on
| p  pull-off
| ~  vibrato
| +  harmonic
| x  Mute note
===============================================================================
Добавлено: 13.03.2012
Другие материалы по этой песне:

Страница создана 27.02.2012
http://primanota.ru/lamb-of-god/red-neck-chords.htm
Привет, Гость.
Предлагаем пройти революционный курс по гитаре.
Подарок от PrimaNota.Ru, забирай!