PrimaNota.ru - самый крупный в мире бесплатный архив песенных текстов, аккордов, табулатур и нот


Lamb Of God - Omerrta Remix - таба, видео

Регистрация Запомнить меня
Войти через:  Facebook Google Twitter Vk Yandex Mail.ru

Lamb Of God - Omerrta Remix - таба, видео

Печатать
Просмотров: 97
.  - palm mute           /  - slide up to
\  - slide down to       ~  - vibrato
h  - hammer on           b  - Bend
p  - pull off            Suffixes for bend
t  - tap                 f  - full bend    h - half bend
ph - pinched harmonic    q  - quarter bend t - tap bend
*  - see comment         ^  - HOLD NOTE
x  - Stuccatto           ~  - vibrato bend
,  - slight palm mute    () - ghost note, sustained note
"  - tremolo note        <> - Trill

Tuning: Drop D: D-A-D-G-B-E (*NOTE* This song is tuned a fragment of a
                                    note higher than standard D)

Verse
|-------------------------------------------------------------------|
|-------------------------------------------------------------------|
|-------------------------------------------------------------------|
|-------------------------------------------------------0-----------|
|-------5-------------4-------------7---------1-----1-0---0---------|
|-000-00--0-0-0-000-00--0-0-0-000-00--0-0-0-0---0-0-----------------|
  ... ..  . . . ... ..  . . . ... ..  . . . .   . .
|-------------------------------------------------------------------|
|-------------------------------------------------------------------|
|-------------------------------------------------------------------|
|-------------------------------------------------------------------|
|-------5-------------4-------------7----------11-----11/14-ph17----|
|-000-00--0-0-0-000-00--0-0-0-000-00--0-0-0-0-----0-0---------------|
  ... ..  . . . ... ..  . . . ... ..  . . . .  . .              Repeat 4x

Chorus
|-------------------------------------------------------------------|
|-------------------------------------------------------------------|
|-------------------------------------------------------------------|
|-0--6-----6----0--6----6----0--6-----6----0--6--0--6---------------|
|-0--6-----6----0--6----6----0--6-----6----0--6--0--6---------------|
|-0--6-----6----0--6----6----0--6-----6----0--6--0--6---------------|
  .  ^     ^    .  ^    ^    .  ^     ^    .     .
|-------------------------------------------------------------------|
|-------------------------------------------------------------------|
|-------------------------------------------------------------------|
|-0--0-----0--0-----0--0-----0--0--0--0-----------------------------|
|-0--0-----0--0-----0--0-----0--0--0--0-----------------------------|
|-0--0-----0--0-----0--0-----0--0--0--0-----------------------------|
  .  ^     .  ^     .  ^     .     .
|-------------------------------------------------------------------|
|-------------------------------------------------------------------|
|-------------------------------------------------------------------|
|-0--6-----6----0--6----6----0--6-----6----0--6--0--6---------------|
|-0--6-----6----0--6----6----0--6-----6----0--6--0--6---------------|
|-0--6-----6----0--6----6----0--6-----6----0--6--0--6---------------|
  .  ^     ^    .  ^    ^    .  ^     ^    .     .


Verse
|-------------------------------------------------------------------|
|-------------------------------------------------------------------|
|-------------------------------------------------------------------|
|-------------------------------------------------------0-----------|
|-------5-------------4-------------7---------1-----1-0---0---------|
|-000-00--0-0-0-000-00--0-0-0-000-00--0-0-0-0---0-0-----------------|
  ... ..  . . . ... ..  . . . ... ..  . . . .   . .
|-------------------------------------------------------------------|
|-------------------------------------------------------------------|
|-------------------------------------------------------------------|
|-------------------------------------------------------------------|
|-------5-------------4-------------7----------11-----11/14-17ph----|
|-000-00--0-0-0-000-00--0-0-0-000-00--0-0-0-0-----0-0---------------|
  ... ..  . . . ... ..  . . . ... ..  . . . .  . .  Repeat 2x

Chorus
|-------------------------------------------------------------------|
|-------------------------------------------------------------------|
|-------------------------------------------------------------------|
|-0--6-----6----0--6----6----0--6-----6----0--6--0--6---------------|
|-0--6-----6----0--6----6----0--6-----6----0--6--0--6---------------|
|-0--6-----6----0--6----6----0--6-----6----0--6--0--6---------------|
  .  ^     ^    .  ^    ^    .  ^     ^    .     .
|-------------------------------------------------------------------|
|-------------------------------------------------------------------|
|-------------------------------------------------------------------|
|-0--0-----0--0-----0--0-----0--0--0--0-----------------------------|
|-0--0-----0--0-----0--0-----0--0--0--0-----------------------------|
|-0--0-----0--0-----0--0-----0--0--0--0-----------------------------|
  .  ^     .  ^     .  ^     .     .
|-------------------------------------------------------------------|
|-------------------------------------------------------------------|
|-------------------------------------------------------------------|
|-0--6-----6----0--6----6----0--6-----6----0--6--0--6---------------|
|-0--6-----6----0--6----6----0--6-----6----0--6--0--6---------------|
|-0--6-----6----0--6----6----0--6-----6----0--6--0--6---------------|
  .  ^     ^    .  ^    ^    .  ^     ^    .     .

Interlude
|-------------------------------------------------------------------------|
|-------------------------------------------------------------------------|
|-------------------------------------------------------------------------|
|----------------------------------6---------0-1-----3-4--------------6---|
|----------------------------------6---------0-1-----3-4--------------6---|
|-0-0-0-0-0-0-0-0-0-0-0-0-0-0-0000-6-0-0-0-0-0-1-0-0-3-4-0-0-0-0-0000-6---|
  . . . . . . . . . . . . . . ....   . . . .     . .     . . . . .... Repeat 6x

|-------------------------------------------------------------------------|
|-------------------------------------------------------------------------|
|-------------------------------------------------------------------------|
|----------------------------------6---------0-1-----3-4------------------|
|----------------------------------6---------0-1-----3-4------------------|
|-0-0-0-0-0-0-0-0-0-0-0-0-0-0-0000-6-0-0-0-0-0-1-0-0-3-4-0-0-0-0-0000-----|
  . . . . . . . . . . . . . . ....   . . . .     . .     . . . . ....
|-------------------------------------------------------------------------|
|-------------------------------------------------------------------------|
|-------------------------------------------------------------------------|
|-------------------------------------------------------------------------|
|-------------------------------------------------------------------------|
|-6-h8---3-h5---h5-0--0-0-0-0000------------------------------------------|
                     . . . ....  Repeat 4x

|-------------------------------------------------------------------------|
|-------------------------------------------------------------------------|
|-------------------------------------------------------------------------|
|-6--8---3--5----5-0--0-0-0-0000------------------------------------------|
|-6--8---3--5----5-0--0-0-0-0000------------------------------------------|
|-6-h8---3-h5---h5-0--0-0-0-0000------------------------------------------|
                      . . .  ....  Repeat 4x

Ending
|-------------------------------------------------------------------|
|-------------------------------------------------------------------|
|-------------------------------------------------------------------|
|-0-0-0---0-0-0-0-0---0-0-0-0-0---0-0-0----0-0-----0----------------|
|-0-0-0-5-0-0-0-0-0-4-0-0-0-0-0-7-0-0-0--1-0-0-1-0---0--------------|
|-0-0-0---0-0-0-0-0---0-0-0-0-0---0-0-0----0-0----------------------|
  . . .   . . . . .   . . . . .   . . .   .
|-------------------------------------------------------------------|
|-------------------------------------------------------------------|
|-------------------------------------------------------------------|
|-0-0-0---0-0-0-0-0---0-0-0-0-0---0-0-0----0-0----------------------|
|-0-0-0-5-0-0-0-0-0-4-0-0-0-0-0-7-0-0-0-11-0-0-11/14 ph17-----------|
|-0-0-0---0-0-0-0-0---0-0-0-0-0---0-0-0----0-0----------------------|
  . . .   . . . . .   . . . . .   . . .   .

|-------------------------------------------------------------------|
|-------------------------------------------------------------------|
|-------------------------------------------------------------------|
|-0-0-0---0-0-0-0-0---0-0-0-0-0---0-0-0----0-0-----0----------------|
|-0-0-0-5-0-0-0-0-0-4-0-0-0-0-0-7-0-0-0--1-0-0-1-0---0--------------|
|-0-0-0---0-0-0-0-0---0-0-0-0-0---0-0-0----0-0----------------------|
  . . .   . . . . .   . . . . .   . . .   .
|-------------------------------------------------------------------|
|-------------------------------------------------------------------|
|-------------------------------------------------------------------|
|-0-0-0---0-0-0-0-0---0-0-0-0-0---0-0-0----0-0------------0-0-------|
|-0-0-0-5-0-0-0-0-0-4-0-0-0-0-0-7-0-0-0-11-0-0-11/14 ph17-0-0-------|
|-0-0-0---0-0-0-0-0---0-0-0-0-0---0-0-0----0-0------------0-0-------|
  . . .   . . . . .   . . . . .   . . .   .          . .
Добавлено: 16.07.2012
Другие материалы по этой песне:
  • Аккорды и текст

Страница создана 16.07.2012
http://primanota.ru/lamb-of-god/omerrta-remix-chords.htm
Привет, Гость.
Предлагаем пройти революционный курс по гитаре.
Подарок от PrimaNota.Ru, забирай!