PrimaNota.ru - самый крупный в мире бесплатный архив песенных текстов, аккордов, табулатур и нот


Lamb Of God - Dead Seeds - текст песни, таба, бас-таба, видео

Регистрация Запомнить меня
Войти через:  Facebook Google Twitter Vk Yandex Mail.ru

Lamb Of God - Dead Seeds - текст песни, таба, бас-таба, видео

Печатать
Просмотров: 551
-------------------------------------------------------------------------------
                             Dead Seeds - Lamb Of God
-------------------------------------------------------------------------------
Tabbed by:popwar    headphones helped to figure it out to waht i think it is
Email:

Tuning:Dropped D    tabbed up to the breakdown

e|-----------------------------------------------------------------------------|
B|-----------------------------------------------------------------------------|
G|-----------------------------------------------------------------------------|
D|-----------------------------------------------------------------------------|
A|---------------------0-------------------------------------------------------|
D|12-----12------12----0-------0----0-0-12------12----0-0-6-0-5-0-3-0-0-0------|

e|-----------------------------------------------------------------------------|
B|-----------------------------------------------------------------------------|
G|-----------------------------------------------------------------------------|
D|-----------------------------------------------------------------------------|
A|---------------------0-------------------------------------------------------|
D|12-----12------12----0-------0----0-0-12------12----0-0-5-0-6-0-5-3-0-0------|x2

e|-----------------------------------------------------------------------------|
B|-----------------------------------------------------------------------------|
G|-----------------------------------------------------------------------------|
D|-------------------------------------------------------5-6-5-----------------|
A|0--------------5-3-5-----------6-5-6-----------6-5-3-5-------6-5-------------|
D|0------0-0-0-0-------0-0-0-0-0-------0-0-0-0-0-------------------0 0 0 0 0---|

e|-----------------------------------------------------------------------------|
B|-----------------------------------------------------------------------------|
G|-----------------------------------------------------------------------------|
D|-----------------------------------------------------------------------------|
A|----5 3 5           6 5 6                     1--------1---------------------|
D|0 0       0 0 0 0 0       0 0 0 0 0 x2 with > 1--------1---------------------|

e|-----------------------------------------------------------------------------|
B|-----------------------------------------------------------------------------|
G|-----------------------------------------------------------------------------|
D|-----------------------------------------------------------------------------|
A|0-1-1-1-1----1---------------------------------------------------------------|
D|0-1-1-1-1----1---- x2 (3rd and 4th time)-------------------------------------|

e|-----------------------------------------------------------------------------|
B|-----------------------------------------------------------------------------|
G|-----------------------------------------------------------------------------|
D|-----------------------------------------------------------------------------|
A|-----------------------------------------------------------------------------|
D|2-2-2-3-2-2-2-2-2-3-2-2-2 2-2-2-2-2-2-3-2-2-2-2-2-3-2-2-*--------------------|

e|-----------------------------------------------------------------------------|
B|-----------------------------------------------------------------------------|
G|-----------------------------------------------------------------------------|
D|-----------------------------------------------------------------------------|
A|0-------0--------------------------------------------------------------------|
D|0-------0----0-0-12------12-------0-0-3-0-5-0-3-0-0-0------------------------|

e|------------------------------------------------------------------  ---------|
B|-----------------------------------------------------------------------------|
G|-----------------------------------------------------------------------------|
D|-----------------------------------------------------------------------------|
A|---------------------0-------0-----------------------------------------------|
D|12-----12------12----0-------0----0-0-12------12----0-0-5-0-6-0-5-3-0-0------| x2

e|-----------------------------------------------------------------------------|
B|-----------------------------------------------------------------------------|
G|-----------------------------------------------------------------------------|
D|--------------------------------------------------------5-6-5----------------|
A|0---------------5-3-5-----------6-5-6-----------6-5-3-5-------6-5-3-5--------|
D|0-0-0-0-0-0-0-0-------0-0-0-0-0-------0-0-0-0-0-------------------    0 0-0--|

e|-----------------------------------------------------------------------------|
B|-----------------------------------------------------------------------------|
G|-----------------------------------------------------------------------------|
D|-----------------------------------------------------------------------------|
A|----5 3 5           6 5 6----------           -1-1-1-1----1------------------|
D|0 0       0 0 0 0 0       0 0 0 0 0 x2 with > -1-1-1-1----1------------------|

e|-----------------------------------------------------------------------------|
B|-----------------------------------------------------------------------------|
G|-----------------------------------------------------------------------------|
D|-----------------------------------------------------------------------------|
A|0 1    1    1 ---------------------------------------------------------------|
D|0 1    1    1   x2 (3rd and 4th time ) back to 2nd chorus
-------------------------------------------------------------------------|


e|-----------------------------------------------------------------------------|
B|-----------------------------------------------------------------------------|
G|-----------------------------------------------------------------------------|
D|-----------------------------------------------------------------------------|
A|0----------------------------------------------------------------------------|
D|0----------------------------------------------------------------------------|
Добавлено: 23.03.2012
Другие материалы по этой песне:

Страница создана 01.03.2012
http://primanota.ru/lamb-of-god/dead-seeds-chords.htm
Привет, Гость.
Предлагаем пройти революционный курс по гитаре.
Подарок от PrimaNota.Ru, забирай!