PrimaNota.ru - самый крупный в мире бесплатный архив песенных текстов, аккордов, табулатур и нот


Lamb Of God - Fake Messiah - текст песни, таба, бас-таба, видео

Регистрация Запомнить меня
Войти через:  Facebook Google Twitter Vk Yandex Mail.ru

Lamb Of God - Fake Messiah - текст песни, таба, бас-таба, видео

Печатать
Просмотров: 196

      S S S S S S Q.        S S S S S S S S S S S S    S S S S S S Q.      
D#||---------------------|--------------------------|---------------------|
A#||---------------------|--------------------------|---------------------|
F#||---------------------|--------------------------|---------------------|
C#||---------------------|--------------------------|---------------------|
G#||------5---5----------|--------5-------6-5-------|------5---5----------|
C#||--0-3---3---3--------|--0-5-6---6-5-5-----7-8-5-|--0-3---3---3--------|


  S S S S S S S S S S S S    S S S S S S Q.        S S S S S S S S S S S S  
--------------------------|---------------------|--------------------------|
--------------------------|---------------------|--------------------------|
--------------------------|---------------------|--------------------------|
--------------------------|---------------------|--------------------------|
------3---3-------8---8---|------5---5----------|--------5-------6-5-------|
--0-1---1---1-0-6---6---6-|--0-3---3---3--------|--0-5-6---6-5-5-----7-8-5-|


                                               PM PM PM PM PM          
  S S S S S S Q.        S S S S S S E  Q       S  E  E  S  E  S S S S  
---------------------|----------------------|-------------------------|
---------------------|----------------------|-------------------------|
---------------------|----------------------|-------------------------|
---------------------|----------------------|-------------------------|
------5---5----------|------3---3---1-------|--0--0--0--0--0--0-0-0-0-|
--0-3---3---3--------|--0-1---1---1-1-------|--0--0--0--0--0--0-0-0-0-|


  PM PM PM PM PM            PM PM PM PM PM            PM PM PM PM PM          
  S  E  E  S  E  S S S S    S  E  E  S  E  S S S S    S  E  E  S  E  S S S S  
-------------------------|-------------------------|-------------------------|
-------------------------|-------------------------|-------------------------|
-------------------------|-------------------------|-------------------------|
-------------------------|-------------------------|-------------------------|
--0--0--0--0--0--0-0-0-0-|--1--1--1--1--0--0-0-0-0-|--1--1--1--1--0--0-0-0-0-|
--0--0--0--0--0--0-0-0-0-|--1--1--1--1--0--0-0-0-0-|--1--1--1--1--0--0-0-0-0-|


  PM PM PM PM PM            PM PM PM PM PM            PM PM PM PM PM          
  S  E  E  S  E  S S S S    S  E  E  S  E  S S S S    S  E  E  S  E  S S S S  
-------------------------|-------------------------|-------------------------|
-------------------------|-------------------------|-------------------------|
-------------------------|-------------------------|-------------------------|
-------------------------|-------------------------|-------------------------|
--0--0--0--0--0--0-0-0-0-|--0--0--0--0--0--0-0-0-0-|--1--1--1--1--0--0-0-0-0-|
--0--0--0--0--0--0-0-0-0-|--0--0--0--0--0--0-0-0-0-|--1--1--1--1--0--0-0-0-0-|


  PM PM PM PM PM            PM PM PM PM PM            PM PM PM PM PM          
  S  E  E  S  E  S S S S    S  E  E  S  E  S S S S    S  E  E  S  E  S S S S  
-------------------------|-------------------------|-------------------------|
-------------------------|-------------------------|-------------------------|
-------------------------|-------------------------|-------------------------|
-------------------------|-------------------------|-------------------------|
--1--1--1--1--0--0-0-0-0-|--0--0--0--0--0--0-0-0-0-|--0--0--0--0--0--0-0-0-0-|
--1--1--1--1--0--0-0-0-0-|--0--0--0--0--0--0-0-0-0-|--0--0--0--0--0--0-0-0-0-|


  PM PM PM PM PM            PM PM PM PM PM            PM PM PM              
  S  E  E  S  E  S S S S    S  E  E  S  E  S S S S    E  E  E  S S S S S S  
-------------------------|-------------------------|-----------------------|
-------------------------|-------------------------|-----------------------|
-------------------------|-------------------------|-----------------------|
-------------------------|-------------------------|-----------------------|
--1--1--1--1--0--0-0-0-0-|--1--1--1--1--0--0-0-0-0-|--0--0--0--0-0-0-0-0-0-|
--1--1--1--1--0--0-0-0-0-|--1--1--1--1--0--0-0-0-0-|--0--0--0--0-0-0-0-0-0-|


  PM PM PM                                                        
  E  E  E  S S S S S S    E  E  E  E  E  E     E  E  E  E  E  E   
-----------------------|--------------------|--------------------|
-----------------------|--------------------|--------------------|
-----------------------|--------------------|--------------------|
-----------------------|--------------------|--------------------|
--0--0--0--0-0-0-0-0-0-|--2--2--2--2--2--2--|--3--3--3--3--3--3--|
--0--0--0--0-0-0-0-0-0-|--2--2--2--2--2--2--|--3--3--3--3--3--3--|


  PM PM PM                PM PM PM                                   
  E  E  E  S S S S S S    E  E  E  S S S S S S    E  E  E  E  E  E   
-----------------------|-----------------------|--------------------|
-----------------------|-----------------------|--------------------|
-----------------------|-----------------------|--------------------|
-----------------------|-----------------------|--------------------|
--0--0--0--0-0-0-0-0-0-|--0--0--0--0-0-0-0-0-0-|--2--2--2--2--2--2--|
--0--0--0--0-0-0-0-0-0-|--0--0--0--0-0-0-0-0-0-|--2--2--2--2--2--2--|


                                   PM PM PM PM PM PM  
  E  E  E  E  E  E     S S S S S S S  S  S  S  S  S   
--------------------|--------------------------------|
--------------------|--------------------------------|
--------------------|--------------------------------|
--------------------|--------------------------------|
--3--3--3--6--6--6--|------5---5---------------------|
--3--3--3--6--6--6--|--0-3---3---3-0--0--0--0--0--0--|


                                         PM PM PM PM PM PM  
  S S S S S S S S S S S S    S S S S S S S  S  S  S  S  S   
--------------------------|--------------------------------|
--------------------------|--------------------------------|
--------------------------|--------------------------------|
--------------------------|--------------------------------|
--------5-------6-5-------|------5---5---------------------|
--0-5-6---6-5-5-----7-8-5-|--0-3---3---3-0--0--0--0--0--0--|


                                         PM PM PM PM PM PM  
  S S S S S S S S S S S S    S S S S S S S  S  S  S  S  S   
--------------------------|--------------------------------|
--------------------------|--------------------------------|
--------------------------|--------------------------------|
--------------------------|--------------------------------|
------3---3-------8---8---|------5---5---------------------|
--0-1---1---1-0-6---6---6-|--0-3---3---3-0--0--0--0--0--0--|


                                         PM PM PM PM PM PM  
  S S S S S S S S S S S S    S S S S S S S  S  S  S  S  S   
--------------------------|--------------------------------|
--------------------------|--------------------------------|
--------------------------|--------------------------------|
--------------------------|--------------------------------|
--------5-------6-5-------|------5---5---------------------|
--0-5-6---6-5-5-----7-8-5-|--0-3---3---3-0--0--0--0--0--0--|


  S S S S S S S S S S S S    H.              H.            
--------------------------|---------------|---------------|
--------------------------|---------------|---------------|
--------------------------|---------------|---------------|
--------------------------|---------------|---------------|
------5---5-------3---2---|---------------|---------------|
--0-3---3---3-0-1---1---1-|---------------|---------------|


                             PM PM PM PM PM            PM PM PM PM PM          
  S S S S S S S S S S S S    S  E  E  S  E  S S S S    S  E  E  S  E  S S S S  
--------------------------|-------------------------|-------------------------|
--------------------------|-------------------------|-------------------------|
--------------------------|-------------------------|-------------------------|
--------------------------|-------------------------|-------------------------|
--------------------------|--0--0--0--0--0--0-0-0-0-|--0--0--0--0--0--0-0-0-0-|
--0-0-0-0-0-0-1-1-1-1-1-1-|--0--0--0--0--0--0-0-0-0-|--0--0--0--0--0--0-0-0-0-|


  PM PM PM PM PM            PM PM PM PM PM            PM PM PM PM PM          
  S  E  E  S  E  S S S S    S  E  E  S  E  S S S S    S  E  E  S  E  S S S S  
-------------------------|-------------------------|-------------------------|
-------------------------|-------------------------|-------------------------|
-------------------------|-------------------------|-------------------------|
-------------------------|-------------------------|-------------------------|
--1--1--1--1--0--0-0-0-0-|--1--1--1--1--0--0-0-0-0-|--0--0--0--0--0--0-0-0-0-|
--1--1--1--1--0--0-0-0-0-|--1--1--1--1--0--0-0-0-0-|--0--0--0--0--0--0-0-0-0-|


  PM PM PM PM PM            PM PM PM PM PM            PM PM PM PM PM          
  S  E  E  S  E  S S S S    S  E  E  S  E  S S S S    S  E  E  S  E  S S S S  
-------------------------|-------------------------|-------------------------|
-------------------------|-------------------------|-------------------------|
-------------------------|-------------------------|-------------------------|
-------------------------|-------------------------|-------------------------|
--0--0--0--0--0--0-0-0-0-|--1--1--1--1--0--0-0-0-0-|--1--1--1--1--0--0-0-0-0-|
--0--0--0--0--0--0-0-0-0-|--1--1--1--1--0--0-0-0-0-|--1--1--1--1--0--0-0-0-0-|


  PM PM PM PM PM            PM PM PM PM PM            PM PM PM PM PM          
  S  E  E  S  E  S S S S    S  E  E  S  E  S S S S    S  E  E  S  E  S S S S  
-------------------------|-------------------------|-------------------------|
-------------------------|-------------------------|-------------------------|
-------------------------|-------------------------|-------------------------|
-------------------------|-------------------------|-------------------------|
--0--0--0--0--0--0-0-0-0-|--0--0--0--0--0--0-0-0-0-|--1--1--1--1--0--0-0-0-0-|
--0--0--0--0--0--0-0-0-0-|--0--0--0--0--0--0-0-0-0-|--1--1--1--1--0--0-0-0-0-|


  PM PM PM PM PM            PM PM PM                PM PM PM              
  S  E  E  S  E  S S S S    E  E  E  S S S S S S    E  E  E  S S S S S S  
-------------------------|-----------------------|-----------------------|
-------------------------|-----------------------|-----------------------|
-------------------------|-----------------------|-----------------------|
-------------------------|-----------------------|-----------------------|
--1--1--1--1--0--0-0-0-0-|--0--0--0--0-0-0-0-0-0-|--0--0--0--0-0-0-0-0-0-|
--1--1--1--1--0--0-0-0-0-|--0--0--0--0-0-0-0-0-0-|--0--0--0--0-0-0-0-0-0-|


                                            PM PM PM              
  E  E  E  E  E  E     E  E  E  E  E  E     E  E  E  S S S S S S  
--------------------|--------------------|-----------------------|
--------------------|--------------------|-----------------------|
--------------------|--------------------|-----------------------|
--------------------|--------------------|-----------------------|
--2--2--2--2--2--2--|--3--3--3--3--3--3--|--0--0--0--0-0-0-0-0-0-|
--2--2--2--2--2--2--|--3--3--3--3--3--3--|--0--0--0--0-0-0-0-0-0-|


  PM PM PM                                                        
  E  E  E  S S S S S S    E  E  E  E  E  E     E  E  E  E  E  E   
-----------------------|--------------------|--------------------|
-----------------------|--------------------|--------------------|
-----------------------|--------------------|--------------------|
-----------------------|--------------------|--------------------|
--0--0--0--0-0-0-0-0-0-|--2--2--2--2--2--2--|--3--3--3--6--6--6--|
--0--0--0--0-0-0-0-0-0-|--2--2--2--2--2--2--|--3--3--3--6--6--6--|


              PM PM PM PM PM PM                             
  S S S S S S S  S  S  S  S  S     S S S S S S S S S S S S  
--------------------------------|--------------------------|
--------------------------------|--------------------------|
--------------------------------|--------------------------|
--------------------------------|--------------------------|
------5---5---------------------|--------5-------6-5-------|
--0-3---3---3-0--0--0--0--0--0--|--0-5-6---6-5-5-----7-8-5-|


              PM PM PM PM PM PM                             
  S S S S S S S  S  S  S  S  S     S S S S S S S S S S S S  
--------------------------------|--------------------------|
--------------------------------|--------------------------|
--------------------------------|--------------------------|
--------------------------------|--------------------------|
------5---5---------------------|------3---3-------8---8---|
--0-3---3---3-0--0--0--0--0--0--|--0-1---1---1-0-6---6---6-|


              PM PM PM PM PM PM                             
  S S S S S S S  S  S  S  S  S     S S S S S S S S S S S S  
--------------------------------|--------------------------|
--------------------------------|--------------------------|
--------------------------------|--------------------------|
--------------------------------|--------------------------|
------5---5---------------------|--------5-------6-5-------|
--0-3---3---3-0--0--0--0--0--0--|--0-5-6---6-5-5-----7-8-5-|


              PM PM PM PM PM PM                             
  S S S S S S S  S  S  S  S  S     S S S S S S S S S S S S  
--------------------------------|--------------------------|
--------------------------------|--------------------------|
--------------------------------|--------------------------|
--------------------------------|--------------------------|
------5---5---------------------|------5---5-------3---2---|
--0-3---3---3-0--0--0--0--0--0--|--0-3---3---3-0-1---1---1-|


              PM PM PM PM PM PM                             
  S S S S S S S  S  S  S  S  S     S S S S S S S S S S S S  
--------------------------------|--------------------------|
--------------------------------|--------------------------|
--------------------------------|--------------------------|
--------------------------------|--------------------------|
------5---5---------------------|--------5-------6-5-------|
--0-3---3---3-0--0--0--0--0--0--|--0-5-6---6-5-5-----7-8-5-|


              PM PM PM PM PM PM                             
  S S S S S S S  S  S  S  S  S     S S S S S S S S S S S S  
--------------------------------|--------------------------|
--------------------------------|--------------------------|
--------------------------------|--------------------------|
--------------------------------|--------------------------|
------5---5---------------------|------3---3-------8---8---|
--0-3---3---3-0--0--0--0--0--0--|--0-1---1---1-0-6---6---6-|


              PM PM PM PM PM PM                             
  S S S S S S S  S  S  S  S  S     S S S S S S S S S S S S  
--------------------------------|--------------------------|
--------------------------------|--------------------------|
--------------------------------|--------------------------|
--------------------------------|--------------------------|
------5---5---------------------|--------5-------6-5-------|
--0-3---3---3-0--0--0--0--0--0--|--0-5-6---6-5-5-----7-8-5-|


              PM PM PM PM PM PM                             
  S S S S S S S  S  S  S  S  S     S S S S S S S S S S S S  
--------------------------------|--------------------------|
--------------------------------|--------------------------|
--------------------------------|--------------------------|
--------------------------------|--------------------------|
------5---5---------------------|------5---5-------3---2---|
--0-3---3---3-0--0--0--0--0--0--|--0-3---3---3-0-1---1---1-|

-------------------------------------------------------------
RIFF PLAYED BY GUITAR 2

|--------------------|------------------|
|--------------------|------------------|
|------------4b------|--L---------------|
|--------------------|------------------|
|--6-6--6--6---------|---------3--3--3--|
|--6-6--6--6---------|---------3--3--3--|
---------------------------------------------------------------

  S E  E  S S E  E  S    S E  E  S E  E  E     S E  E  S S E  E  S  
----------------------|---------------------|----------------------|
----------------------|---------------------|----------------------|
----------------------|---------------------|----------------------|
----------------------|---------------------|----------------------|
--6-6--6--6-6-6--6--6-|--6-6--6--6-3--3--3--|--6-6--6--6-6-6--6--6-|
--6-6--6--6-6-6--6--6-|--6-6--6--6-3--3--3--|--6-6--6--6-6-6--6--6-|


  S E  E  S E  E  E     S E  E  S S E  E  S    S E  E  S E  E  E   
---------------------|----------------------|---------------------|
---------------------|----------------------|---------------------|
---------------------|----------------------|---------------------|
---------------------|----------------------|---------------------|
--6-6--6--6-3--3--3--|--6-6--6--6-6-6--6--6-|--6-6--6--6-3--3--3--|
--6-6--6--6-3--3--3--|--6-6--6--6-6-6--6--6-|--6-6--6--6-3--3--3--|


                                               PM PM              
  S E  E  S S E  E  S    S E  E  S E  E  E     S  S  H        E   
----------------------|---------------------|--------------------|
----------------------|---------------------|--------------------|
----------------------|---------------------|--------------------|
----------------------|---------------------|--------------------|
--6-6--6--6-6-6--6--6-|--6-6--6--6-3--3--3--|--------------------|
--6-6--6--6-6-6--6--6-|--6-6--6--6-3--3--3--|--0--0--------------|


  PM PM      PM PM PM PM PM PM    PM PM                PM PM      PM PM       
  S  S  Q    S  S  S  S  S  S     S  S  H        E     S  S  Q    S  S  Q     
-------------------------------|--------------------|------------------------|
-------------------------------|--------------------|------------------------|
-------------------------------|--------------------|------------------------|
-------------------------------|--------------------|------------------------|
-------------------------------|--------------------|------------------------|
--0--0-------0--0--0--0--0--0--|--0--0--------------|--0--0-------0--0-------|


  PM PM                PM PM      PM PM PM PM PM PM    PM PM              
  S  S  H        E     S  S  Q    S  S  S  S  S  S     S  S  H        E   
--------------------|-------------------------------|--------------------|
--------------------|-------------------------------|--------------------|
--------------------|-------------------------------|--------------------|
--------------------|-------------------------------|--------------------|
--------------------|-------------------------------|--------------------|
--0--0--------------|--0--0-------0--0--0--0--0--0--|--0--0--------------|


  PM PM      PM PM         PM PM                      
  S  S  Q    S  S  Q       S  S  S S S S S S S S S S  
------------------------|----------------------------|
------------------------|----------------------------|
------------------------|----------------------------|
------------------------|----------------------------|
------------------------|--------8-5-8-5-8-5-8-5-8-5-|
--0--0-------0--0-------|--0--0----------------------|


  PM PM         PM PM PM PM PM PM    PM PM                      
  S  S  S S S S S  S  S  S  S  S     S  S  S S S S S S S S S S  
----------------------------------|----------------------------|
----------------------------------|----------------------------|
----------------------------------|----------------------------|
----------------------------------|----------------------------|
--------8-5-8-5-------------------|--------8-5-8-5-8-5-8-5-8-5-|
--0--0----------0--0--0--0--0--0--|--0--0----------------------|


  PM PM           PM PM            PM PM                      
  S  S   S S  S S S  S  S S S S    S  S  S S S S S S S S S S  
--------------------------------|----------------------------|
--------------------------------|----------------------------|
--------------------------------|----------------------------|
--------------------------------|----------------------------|
--------10-7-10-7-------7-4-7-4-|--------8-5-8-5-8-5-8-5-8-5-|
--0--0------------0--0----------|--0--0----------------------|


  PM PM         PM PM PM PM PM PM    PM PM                      
  S  S  S S S S S  S  S  S  S  S     S  S  S S S S S S S S S S  
----------------------------------|----------------------------|
----------------------------------|----------------------------|
----------------------------------|----------------------------|
----------------------------------|----------------------------|
--------8-5-8-5-------------------|--------8-5-8-5-8-5-8-5-8-5-|
--0--0----------0--0--0--0--0--0--|--0--0----------------------|


  PM PM           PM PM                                                
  S  S   S S  S S S  S  S S S S     
--------------------------------|
--------------------------------|
--------------------------------|
--------------------------------|
--------10-7-10-7-------7-4-7-4-|
--0--0------------0--0----------|


--------------------------------------------------------------------
RIFF PLAYED BY GUITAR 2 DURING SLIDES

 PM PM                        PM PM         PM PM PM PM PM PM  
  S  S  S S S S S S S S S S    S  S  S S S S S  S  S  S  S  S   
----------------------------|----------------------------------|
----------------------------|----------------------------------|
----------------------------|----------------------------------|
----------------------------|----------------------------------|
--------8-5-8-5-8-5-8-5-8-5-|--------8-5-8-5-------------------|
--0--0----------------------|--0--0----------0--0--0--0--0--0--|


  PM PM                        PM PM           PM PM          
  S  S  S S S S S S S S S S    S  S   S S  S S S  S  S S S S  
----------------------------|--------------------------------|
----------------------------|--------------------------------|
----------------------------|--------------------------------|
----------------------------|--------------------------------|
--------8-5-8-5-8-5-8-5-8-5-|--------10-7-10-7-------7-4-7-4-|
--0--0----------------------|--0--0------------0--0----------|


  PM PM                        PM PM         PM PM PM PM PM PM  
  S  S  S S S S S S S S S S    S  S  S S S S S  S  S  S  S  S   
----------------------------|----------------------------------|
----------------------------|----------------------------------|
----------------------------|----------------------------------|
----------------------------|----------------------------------|
--------8-5-8-5-8-5-8-5-8-5-|--------8-5-8-5-------------------|
--0--0----------------------|--0--0----------0--0--0--0--0--0--|


  PM PM                        PM PM           PM PM          
  S  S  S S S S S S S S S S    S  S   S S  S S S  S  S S S S  
----------------------------|--------------------------------|
----------------------------|--------------------------------|
----------------------------|--------------------------------|
----------------------------|--------------------------------|
--------8-5-8-5-8-5-8-5-8-5-|--------10-7-10-7-------7-4-7-4-|
--0--0----------------------|--0--0------------0--0----------|


  PM PM                        PM PM         PM PM PM PM PM PM  
  S  S  S S S S S S S S S S    S  S  S S S S S  S  S  S  S  S   
----------------------------|----------------------------------|
----------------------------|----------------------------------|
----------------------------|----------------------------------|
----------------------------|----------------------------------|
--------8-5-8-5-8-5-8-5-8-5-|--------8-5-8-5-------------------|
--0--0----------------------|--0--0----------0--0--0--0--0--0--|


  PM PM                        PM PM           PM PM          
  S  S  S S S S S S S S S S    S  S   S S  S S S  S  S S S S  
----------------------------|--------------------------------|
----------------------------|--------------------------------|
----------------------------|--------------------------------|
----------------------------|--------------------------------|
--------8-5-8-5-8-5-8-5-8-5-|--------10-7-10-7-------7-4-7-4-|
--0--0----------------------|--0--0------------0--0----------|


  PM PM                        PM PM         PM PM PM PM PM PM  
  S  S  S S S S S S S S S S    S  S  S S S S S  S  S  S  S  S   
----------------------------|----------------------------------|
----------------------------|----------------------------------|
----------------------------|----------------------------------|
----------------------------|----------------------------------|
--------8-5-8-5-8-5-8-5-8-5-|--------8-5-8-5-------------------|
--0--0----------------------|--0--0----------0--0--0--0--0--0--|


  PM PM                        PM PM           PM PM          
  S  S  S S S S S S S S S S    S  S   S S  S S S  S  S S S S  
----------------------------|--------------------------------|
----------------------------|--------------------------------|
----------------------------|--------------------------------|
----------------------------|--------------------------------|
--------8-5-8-5-8-5-8-5-8-5-|--------10-7-10-7-------7-4-7-4-|
--0--0----------------------|--0--0------------0--0----------|


  PM PM                        PM PM         PM PM PM PM PM PM  
  S  S  S S S S S S S S S S    S  S  S S S S S  S  S  S  S  S   
----------------------------|----------------------------------|
----------------------------|----------------------------------|
----------------------------|----------------------------------|
----------------------------|----------------------------------|
--------8-5-8-5-8-5-8-5-8-5-|--------8-5-8-5-------------------|
--0--0----------------------|--0--0----------0--0--0--0--0--0--|


  PM PM                        PM PM           PM PM          
  S  S  S S S S S S S S S S    S  S   S S  S S S  S  S S S S  
----------------------------|--------------------------------|
----------------------------|--------------------------------|
----------------------------|--------------------------------|
----------------------------|--------------------------------|
--------8-5-8-5-8-5-8-5-8-5-|--------10-7-10-7-------7-4-7-4-|
--0--0----------------------|--0--0------------0--0----------|


  PM PM                        PM PM         PM PM PM PM PM PM  
  S  S  S S S S S S S S S S    S  S  S S S S S  S  S  S  S  S   
----------------------------|----------------------------------|
----------------------------|----------------------------------|
----------------------------|----------------------------------|
----------------------------|----------------------------------|
--------8-5-8-5-8-5-8-5-8-5-|--------8-5-8-5-------------------|
--0--0----------------------|--0--0----------0--0--0--0--0--0--|


  PM PM                        PM PM         PM PM          
  S  S  S S S S S S S S S S    S  S  S S S S S  S  S S S S  
----------------------------|------------------------------|
----------------------------|------------------------------|
----------------------------|------------------------------|
----------------------------|------------------------------|
--------8-5-8-5-8-5-8-5-8-5-|--------7-4-7-4-------7-4-7-4-|
--0--0----------------------|--0--0----------0--0----------|


  PM PM                        PM PM         PM PM PM PM PM PM  
  S  S  S S S S S S S S S S    S  S  S S S S S  S  S  S  S  S   
----------------------------|----------------------------------|
----------------------------|----------------------------------|
----------------------------|----------------------------------|
----------------------------|----------------------------------|
--------8-5-8-5-8-5-8-5-8-5-|--------8-5-8-5-------------------|
--0--0----------------------|--0--0----------0--0--0--0--0--0--|


  PM PM                        PM PM           PM PM          
  S  S  S S S S S S S S S S    S  S   S S  S S S  S  S S S S  
----------------------------|--------------------------------|
----------------------------|--------------------------------|
----------------------------|--------------------------------|
----------------------------|--------------------------------|
--------8-5-8-5-8-5-8-5-8-5-|--------10-7-10-7-------7-4-7-4-|
--0--0----------------------|--0--0------------0--0----------|


  PM PM                        PM PM         PM PM PM PM PM PM  
  S  S  S S S S S S S S S S    S  S  S S S S S  S  S  S  S  S   
----------------------------|----------------------------------|
----------------------------|----------------------------------|
----------------------------|----------------------------------|
----------------------------|----------------------------------|
--------8-5-8-5-8-5-8-5-8-5-|--------8-5-8-5-------------------|
--0--0----------------------|--0--0----------0--0--0--0--0--0--|


  PM PM                        PM PM           PM PM                         
  S  S  S S S S S S S S S S    S  S   S S  S S S  S  S S S S                 
----------------------------|--------------------------------|----|----|----|
----------------------------|--------------------------------|----|----|----|
----------------------------|--------------------------------|----|----|----|
----------------------------|--------------------------------|----|----|----|
--------8-5-8-5-8-5-8-5-8-5-|--------10-7-10-7-------7-4-7-4-|----|----|----|
--0--0----------------------|--0--0------------0--0----------|----|----|----|

-----------------------------------------------------------------------------------------------

-------------------|-----------------|
-------------------|-----------------|
-------------------|-----------------|
--/15s~------------|---L------7------|
-------------------|-----------------|
-------------------|-----------------|


  H.                 Q.       Q.         H.                 H.            
-----------------|-------------------|------------------|----------------|
-----------------|-------------------|------------------|----------------|
-----------------|-------------------|------------------|----------------|
--6s~------------|--11s------17------|--15s~------------|---L------------|
-----------------|-------------------|------------------|----------------|
-----------------|-------------------|------------------|----------------|


   H.               Q.     Q.          H.                 Q.     Q.      
-----------------|-----------------|------------------|-----------------|
-----------------|-----------------|------------------|-----------------|
-----------------|-----------------|------------------|-----------------|
--14s------------|--8------7s------|--15s~------------|---L------7------|
-----------------|-----------------|------------------|-----------------|
-----------------|-----------------|------------------|-----------------|


  Q.        Q.          Q.       Q.           H.               H.            
--------------------|---------------------|----------------|----------------|
--------------------|---------------------|----------------|----------------|
--------------------|---------------------|----------------|----------------|
--6s~------11s------|--14s------12s~------|---L------------|---L------------|
--------------------|---------------------|----------------|----------------|
--------------------|---------------------|----------------|----------------|


                              PH         PM PM PM              
   H.               Q.        Q.         E  E  E  S S S S S S  
-----------------|--------------------|-----------------------|
-----------------|--------------------|-----------------------|
-----------------|--------------------|-----------------------|
--14~------------|--8s------<>7\------|-----------------------|
-----------------|--------------------|--0--0--0--0-0-0-0-0-0-|
-----------------|--------------------|--0--0--0--0-0-0-0-0-0-|


  PM PM PM                                                        
  E  E  E  S S S S S S    E  E  E  E  E  E     E  E  E  E  E  E   
-----------------------|--------------------|--------------------|
-----------------------|--------------------|--------------------|
-----------------------|--------------------|--------------------|
-----------------------|--------------------|--------------------|
--0--0--0--0-0-0-0-0-0-|--2--2--2--2--2--2--|--3--3--3--3--3--3--|
--0--0--0--0-0-0-0-0-0-|--2--2--2--2--2--2--|--3--3--3--3--3--3--|


  PM PM PM                PM PM PM                                   
  E  E  E  S S S S S S    E  E  E  S S S S S S    E  E  E  E  E  E   
-----------------------|-----------------------|--------------------|
-----------------------|-----------------------|--------------------|
-----------------------|-----------------------|--------------------|
-----------------------|-----------------------|--------------------|
--0--0--0--0-0-0-0-0-0-|--0--0--0--0-0-0-0-0-0-|--2--2--2--2--2--2--|
--0--0--0--0-0-0-0-0-0-|--0--0--0--0-0-0-0-0-0-|--2--2--2--2--2--2--|


                                   PM PM PM PM PM PM  
  E  E  E  E  E  E     S S S S S S S  S  S  S  S  S   
--------------------|--------------------------------|
--------------------|--------------------------------|
--------------------|--------------------------------|
--------------------|--------------------------------|
--3--3--3--6--6--6--|------5---5---------------------|
--3--3--3--6--6--6--|--0-3---3---3-0--0--0--0--0--0--|


                                         PM PM PM PM PM PM  
  S S S S S S S S S S S S    S S S S S S S  S  S  S  S  S   
--------------------------|--------------------------------|
--------------------------|--------------------------------|
--------------------------|--------------------------------|
--------------------------|--------------------------------|
--------5-------6-5-------|------5---5---------------------|
--0-5-6---6-5-5-----7-8-5-|--0-3---3---3-0--0--0--0--0--0--|


                                         PM PM PM PM PM PM  
  S S S S S S S S S S S S    S S S S S S S  S  S  S  S  S   
--------------------------|--------------------------------|
--------------------------|--------------------------------|
--------------------------|--------------------------------|
--------------------------|--------------------------------|
------3---3-------8---8---|------5---5---------------------|
--0-1---1---1-0-6---6---6-|--0-3---3---3-0--0--0--0--0--0--|


                                         PM PM PM PM PM PM  
  S S S S S S S S S S S S    S S S S S S S  S  S  S  S  S   
--------------------------|--------------------------------|
--------------------------|--------------------------------|
--------------------------|--------------------------------|
--------------------------|--------------------------------|
--------5-------6-5-------|------5---5---------------------|
--0-5-6---6-5-5-----7-8-5-|--0-3---3---3-0--0--0--0--0--0--|


                                         PM PM PM PM PM PM  
  S S S S S S S S S S S S    S S S S S S S  S  S  S  S  S   
--------------------------|--------------------------------|
--------------------------|--------------------------------|
--------------------------|--------------------------------|
--------------------------|--------------------------------|
------5---5-------3---2---|------5---5---------------------|
--0-3---3---3-0-1---1---1-|--0-3---3---3-0--0--0--0--0--0--|


                                         PM PM PM PM PM PM  
  S S S S S S S S S S S S    S S S S S S S  S  S  S  S  S   
--------------------------|--------------------------------|
--------------------------|--------------------------------|
--------------------------|--------------------------------|
--------------------------|--------------------------------|
--------5-------6-5-------|------5---5---------------------|
--0-5-6---6-5-5-----7-8-5-|--0-3---3---3-0--0--0--0--0--0--|


                                         PM PM PM PM PM PM  
  S S S S S S S S S S S S    S S S S S S S  S  S  S  S  S   
--------------------------|--------------------------------|
--------------------------|--------------------------------|
--------------------------|--------------------------------|
--------------------------|--------------------------------|
------3---3-------8---8---|------5---5---------------------|
--0-1---1---1-0-6---6---6-|--0-3---3---3-0--0--0--0--0--0--|


                                         PM PM PM PM PM PM  
  S S S S S S S S S S S S    S S S S S S S  S  S  S  S  S   
--------------------------|--------------------------------|
--------------------------|--------------------------------|
--------------------------|--------------------------------|
--------------------------|--------------------------------|
--------5-------6-5-------|------5---5---------------------|
--0-5-6---6-5-5-----7-8-5-|--0-3---3---3-0--0--0--0--0--0--|


                             PM PM PM PM PM PM PM PM PM    PM PM PM PM       
  S S S S S S S S S S S S    E  E  E  S  S  S  S  S  S     E  E  E  E  Q     
--------------------------|-----------------------------|-------------------|
--------------------------|-----------------------------|-------------------|
--------------------------|-----------------------------|-------------------|
--------------------------|-----------------------------|-------------------|
------5---5-------3---2---|--0--0--0--0--0--0--0--0--0--|--0--0--0--0-------|
--0-3---3---3-0-1---1---1-|--0--0--0--0--0--0--0--0--0--|--0--0--0--0-------|


  PM PM PM                PM PM PM                PM PM PM              
  E  E  E  S S S S S S    E  E  E  S S S S S S    E  E  E  S S S S S S  
-----------------------|-----------------------|-----------------------|
-----------------------|-----------------------|-----------------------|
-----------------------|-----------------------|-----------------------|
-----------------------|-----------------------|-----------------------|
--0--0--0--0-0-0-0-0-0-|--0--0--0--0-0-0-0-0-0-|--0--0--0--0-0-0-0-0-0-|
--0--0--0--0-0-0-0-0-0-|--0--0--0--0-0-0-0-0-0-|--0--0--0--0-0-0-0-0-0-|


  PM PM PM                PM PM PM                PM PM PM              
  E  E  E  S S S S S S    E  E  E  S S S S S S    E  E  E  S S S S S S  
-----------------------|-----------------------|-----------------------|
-----------------------|-----------------------|-----------------------|
-----------------------|-----------------------|-----------------------|
-----------------------|-----------------------|-----------------------|
--0--0--0--0-0-0-0-0-0-|--1--1--1--0-0-0-0-0-0-|--1--1--1--0-0-0-0-0-0-|
--0--0--0--0-0-0-0-0-0-|--1--1--1--0-0-0-0-0-0-|--1--1--1--0-0-0-0-0-0-|


  PM PM PM                PM PM PM                PM PM PM              
  E  E  E  S S S S S S    E  E  E  S S S S S S    E  E  E  S S S S S S  
-----------------------|-----------------------|-----------------------|
-----------------------|-----------------------|-----------------------|
-----------------------|-----------------------|-----------------------|
-----------------------|-----------------------|-----------------------|
--0--0--0--0-0-0-0-0-0-|--0--0--0--0-0-0-0-0-0-|--1--1--1--0-0-0-0-0-0-|
--0--0--0--0-0-0-0-0-0-|--0--0--0--0-0-0-0-0-0-|--1--1--1--0-0-0-0-0-0-|


  PM PM PM                PM PM PM                PM PM PM              
  E  E  E  S S S S S S    E  E  E  S S S S S S    E  E  E  S S S S S S  
-----------------------|-----------------------|-----------------------|
-----------------------|-----------------------|-----------------------|
-----------------------|-----------------------|-----------------------|
-----------------------|-----------------------|-----------------------|
--1--1--1--0-0-0-0-0-0-|--0--0--0--0-0-0-0-0-0-|--0--0--0--0-0-0-0-0-0-|
--1--1--1--0-0-0-0-0-0-|--0--0--0--0-0-0-0-0-0-|--0--0--0--0-0-0-0-0-0-|


  PM PM PM                PM PM PM                PM PM PM              
  E  E  E  S S S S S S    E  E  E  S S S S S S    E  E  E  S S S S S S  
-----------------------|-----------------------|-----------------------|
-----------------------|-----------------------|-----------------------|
-----------------------|-----------------------|-----------------------|
-----------------------|-----------------------|-----------------------|
--1--1--1--0-0-0-0-0-0-|--1--1--1--0-0-0-0-0-0-|--0--0--0--0-0-0-0-0-0-|
--1--1--1--0-0-0-0-0-0-|--1--1--1--0-0-0-0-0-0-|--0--0--0--0-0-0-0-0-0-|


  PM PM PM                PM PM PM                PM PM PM              
  E  E  E  S S S S S S    E  E  E  S S S S S S    E  E  E  S S S S S S  
-----------------------|-----------------------|-----------------------|
-----------------------|-----------------------|-----------------------|
-----------------------|-----------------------|-----------------------|
-----------------------|-----------------------|-----------------------|
--0--0--0--0-0-0-0-0-0-|--1--1--1--0-0-0-0-0-0-|--1--1--1--0-0-0-0-0-0-|
--0--0--0--0-0-0-0-0-0-|--1--1--1--0-0-0-0-0-0-|--1--1--1--0-0-0-0-0-0-|


  PM PM PM                PM PM PM                PM PM PM              
  E  E  E  S S S S S S    E  E  E  S S S S S S    E  E  E  S S S S S S  
-----------------------|-----------------------|-----------------------|
-----------------------|-----------------------|-----------------------|
-----------------------|-----------------------|-----------------------|
-----------------------|-----------------------|-----------------------|
--0--0--0--0-0-0-0-0-0-|--0--0--0--0-0-0-0-0-0-|--1--1--1--0-0-0-0-0-0-|
--0--0--0--0-0-0-0-0-0-|--0--0--0--0-0-0-0-0-0-|--1--1--1--0-0-0-0-0-0-|


  PM PM PM                PM PM PM                PM PM PM              
  E  E  E  S S S S S S    E  E  E  S S S S S S    E  E  E  S S S S S S  
-----------------------|-----------------------|-----------------------|
-----------------------|-----------------------|-----------------------|
-----------------------|-----------------------|-----------------------|
-----------------------|-----------------------|-----------------------|
--1--1--1--0-0-0-0-0-0-|--0--0--0--0-0-0-0-0-0-|--0--0--0--0-0-0-0-0-0-|
--1--1--1--0-0-0-0-0-0-|--0--0--0--0-0-0-0-0-0-|--0--0--0--0-0-0-0-0-0-|


  PM PM PM                PM PM PM                PM PM PM              
  E  E  E  S S S S S S    E  E  E  S S S S S S    E  E  E  S S S S S S  
-----------------------|-----------------------|-----------------------|
-----------------------|-----------------------|-----------------------|
-----------------------|-----------------------|-----------------------|
-----------------------|-----------------------|-----------------------|
--1--1--1--0-0-0-0-0-0-|--1--1--1--0-0-0-0-0-0-|--0--0--0--0-0-0-0-0-0-|
--1--1--1--0-0-0-0-0-0-|--1--1--1--0-0-0-0-0-0-|--0--0--0--0-0-0-0-0-0-|


  PM PM PM                PM PM PM                PM PM PM              
  E  E  E  S S S S S S    E  E  E  S S S S S S    E  E  E  S S S S S S  
-----------------------|-----------------------|-----------------------|
-----------------------|-----------------------|-----------------------|
-----------------------|-----------------------|-----------------------|
-----------------------|-----------------------|-----------------------|
--0--0--0--0-0-0-0-0-0-|--1--1--1--0-0-0-0-0-0-|--1--1--1--0-0-0-0-0-0-|
--0--0--0--0-0-0-0-0-0-|--1--1--1--0-0-0-0-0-0-|--1--1--1--0-0-0-0-0-0-|


  PM PM PM                PM PM PM PM        
  E  E  E  S S S S S S    E  E  E  E  Q      
-----------------------|-------------------||
-----------------------|-------------------||
-----------------------|-------------------||
-----------------------|-------------------||
--0--0--0--0-0-0-0-0-0-|--0--0--0--0-------||
--0--0--0--0-0-0-0-0-0-|--0--0--0--0-------||




Duration Legend
---------------
W - whole
H - half
Q - quarter
E - 8th
S - 16th
T - 32nd
X - 64th
. - note dotted
|-n-|  - n-tuplets


Tablature Legend
----------------
L - tied note
x - dead note
g - grace note
(n) - ghost note
> - accentuded note
NH - natural harmonic
AH - artificial harmonic
TH - tapped harmonic
SH - semi harmonic
PH - pitch harmonic
h - hammer on
p - pull off
b - bend
br - bendRelease
pb - preBend
pbr - preBendRelease
brb - bendReleaseBend
\n/ - tremolo bar dip
\n - tremolo bar dive
-/n - tremolo bar Release up
/n\ - tremolo bar inverted dip
/n - tremolo bar return
-\n - tremolo bar Release down
S - shift slide
s - legato slide
/ -  slide into from below or out of upwards
\ -  slide into from above or out of downwards
~ - vibrato
W - wide vibrato
tr - trill
TP - tremolo picking
T - tapping
S - slap
P - pop
< - fade in
^ - brush up
v - brush down
Добавлено: 22.05.2012
Другие материалы по этой песне:

Страница создана 11.04.2012
http://primanota.ru/lamb-of-god/fake-messiah-chords.htm
Привет, Гость.
Предлагаем пройти революционный курс по гитаре.
Подарок от PrimaNota.Ru, забирай!