PrimaNota.ru - самый крупный в мире бесплатный архив песенных текстов, аккордов, табулатур и нот


Lamb Of God - Everything To Nothing - текст песни, таба, бас-таба, видео

Регистрация Запомнить меня
Войти через:  Facebook Google Twitter Vk Yandex Mail.ru

Lamb Of God - Everything To Nothing - текст песни, таба, бас-таба, видео

Печатать
Просмотров: 386
Уроки эстрадного вокала в Санкт-Петербурге
This is the tab for "Everything to Nothing" from "Wrath" by Lamb of God. It is in Drop D 
standard tuning. I have everything but the solo here. I'll include the solo when I have it.

b = bend
h = hammer-on
p = pull-off
* = palm mute
x = right hand mute; pick-slide is a capital X
/ = slide up
\ = slide down
^ = slight bend

INTRO


e|-------------|
b|-------------|
G|-------------|
D|-------------|
A|---X/--12\---|
D|---X/--12\---|

e|-------------------------------|---------------------------------|
b|-------------------------------|---------------------------------|
G|-------------------------------|---------------------------------| Play
D|-------------------------------|---------------------------------|  2x
A|-------------------------------|-------------------------8-7-2-3-|
D|-2-222-3-2-2-2-2-2-5-2-2-6-2-5-|-2-222-3-2-2-2-2-2-2-2-2-8-7-2-3-|
     ***   * *   * *   * *   *       ***   * *   * *   * *

e|-------------------------------|---------------------------------|
b|-------------------------------|---------------------------------|
G|-------------------------------|---------------------------------|
D|-------------------------------|---------------------------------|
A|-------------------------------|---------------------------------|
D|-2-222-3-2-2-2-2-2-5-2-2-6-2-5-|-000-0-000-0-000-333-3-333-3-333-|
     ***   * *   * *   * *   *     *** * *** * *** *** * *** * ***

e|-------------------------------|---------------------------------|
b|-------------------------------|---------------------------------|
G|-------------------------------|---------------------------------|
D|-------------------------------|---------------------------------|
A|-------------------------------|-------------------------8-7-2-3-|
D|-2-222-3-2-2-2-2-2-5-2-2-6-2-5-|-2-222-3-2-2-2-2-2-2-2-2-8-7-2-3-|
     ***   * *   * *   * *   *       ***   * *   * *   * *

e|-------------------------------|---------------------------------|
b|-------------------------------|---------------------------------|
G|-------------------------------|---------------------------------|
D|-------------------------------|---------------------------------|
A|-------------------------------|---------------------------------|
D|-2-222-3-2-2-2-2-2-5-2-2-6-2-5-|-000-0-000-0-000-333-3-333-3-333-|
     ***   * *   * *   * *   *     *** * *** * *** *** * *** * ***


VERSE 1


e|-------------------------------|---------------------------------|
b|-------------------------------|---------------------------------|
G|-------------------------------|---------------------------------|
D|-------------------------------|---------------------------------|
A|-------------------------------|-------------------------8-7-2-3-|
D|-2-2-2-3-2-2-2-2-2-5-2-2-6-2-5-|-2-2-2-3-2-2-2-2-2-2-2-2-8-7-2-3-|\
     * *   * *   * *   * *   *       * *   * *   * *   * *           \Play
                                                                     / 2x
e|-------------------------------|---------------------------------|/
b|-------------------------------|---------------------------------|
G|-------------------------------|---------------------------------|
D|-------------------------------|---------------------------------|
A|-------------------------------|-0-----0-----0---3-----3-----3---|
D|-2-2-2-3-2-2-2-2-2-5-2-2-6-2-6-|-0-0-0-0-0-0-0-0-3-3-3-3-3-3-3-3-|
     * *   * *   * *   * *   *       * *   * *   *   * *   * *   *

e|-------------------------|-------------------------|
b|-------------------------|-------------------------|
G|-------------------------|-------------------------|
D|-------------------------|-------------------------|
A|-------------------------|-------------------------|
D|-2-2-2-2-2-2-2-2-2-2-2-2-|-2-2-2-2-2-2-2-2\---12\--|
         |_________________|       |_______|
                  |                    |
           Gradually bend--------------
           up a half step


CHORUS 1


e|---------------------------------|---------------------------------|
b|---------------------------------|---------------------------------|
G|---------------------------------|---------------------------------|
D|---------------------------------|---------------------------------|
A|---------------------------------|---2-2-2-2-2-2-2-2-2-2-2-2-2-2-2-|
D|-2-5-4-2-5-4-2-8-7-5-8-7-5-4-2-3-|-2-2-2-2-2-2-2-2-2-2-2-2-2-2-2-2-|\
                                       * * * * * * * * * * * * * * *   \Play
                                                                       / 2x
e|---------------------------------|---------------------------------|/
b|---------------------------------|---------------------------------|
G|---------------------------------|---------------------------------|
D|---------------------------------|---------------------------------|
A|---------------------------------|-0---0-----0-----3---3-----3-----|
D|-2-5-4-2-5-4-2-8-7-5-8-7-5-4-2-3-|-0-0-0-0-0-0-0-0-3-3-3-3-3-3-3-3-|
                                       *   * *   * *   *   * *   * *

e|------------|
b|------------|
G|------------|
D|-2----------|
A|-2----------|
D|-2----------|


VERSE 2 (exactly the same as VERSE 1)


CHORUS 2 (exactly the same as CHORUS 1)


BRIDGE


e|---------------------------|
b|---------------------------|
G|---------------------------| Play 3x
D|---------------------------|
A|---------------------------|
D|-222-2-222-2-222-2-3p2-2-2-|
   *** * *** * *** *     *

e|-----------------------------|
b|-----------------------------|
G|-----------------------------|
D|-----------------------------|
A|-----------------2-2-2-3-3-3-|
D|-222-2-222-2-222-2-2-2-3-3-3-|
   *** * *** * *** * * * * * *

                        Guitar 2 plays fret 5 instead of 6 for the bends
e|------------------------------|-------------------------|
b|------------------------------|-----------------6b--6b--|
G|------------------------------|-------------------------|
D|------------------------------|-------------------------| \
A|------------------------------|-------------------------|  \
D|-222-2-222-2-222-2-3p2-2-2----|-222-2-3p2-2-2-x----x----|   \
   *** * *** * *** *     *        *** *     * *                \Play
                                                               / 2x
e|------------------------------|----------------------------|/
b|------------------------------|----------------------------|
G|------------------------------|----------------------------|
D|------------------------------|----------------------------|
A|------------------------------|----------------------------|
D|-222-2-222-2-222-2-3p2-2-2----|-222-2-3p2-2-2-5--8-7-5-2-3-|
   *** * *** * *** *     *        *** *     * *

e|-------------------------------|----------------------------------- \
b|-------------------------------|-----------------------------|\---- \
G|-------------------------------|-----------------------------|----- \
D|-------------------------------|-----------------------------| ---- \
A|-2-2-2-2-2-2-2-3-2-2-2-2-2-2-2-|-2-2-2-3-2-2-2-2-2-5---2-5---|  --- \
D|-2-2-2-2-2-2-2-3-2-2-2-2-2-2-2-|-2-2-2-3-2-2-2-2-2-5---2-5---|   -- \
   * * *   * * *   * * * * * * *   * * *   * * * * * ^     ^         \
                                                                      \Play
e|-------------------------------|---------------------------------|  / 2x
b|-------------------------------|---------------------------------| /
G|-------------------------------|---------------------------------|/
D|-------------------------------|---------------------------------|
A|-2-2-2-2-2-2-2-3-2-2-2-2-2-2-2-|-2-2-2-3-2-2-2-5-2-2-2-8-7-5-2-3-|
D|-2-2-2-2-2-2-2-3-2-2-2-2-2-2-2-|-2-2-2-3-2-2-2-5-2-2-2-8-7-5-2-3-|
   * * *   * * *   * * * * * * *   * * *   * * *   * * *


GUITAR SOLO (I'll tab it later...for now here is the rhythm)


e|-------------------------------|-----------------------------|
b|-------------------------------|-----------------------------|
G|-------------------------------|-----------------------------| Play
D|-------------------------------|-----------------------------|  4x
A|-2-2-2-2-2-2-2-3-2-2-2-2-2-2-2-|-2-2-2-3-2-2-2-2-2-5---2-5---|
D|-2-2-2-2-2-2-2-3-2-2-2-2-2-2-2-|-2-2-2-3-2-2-2-2-2-5---2-5---|
   * * *   * * *   * * * * * * *   * * *   * * * * * ^     ^

e|-------------------------|-------------------------|
b|-------------------------|-------------------------|
G|-------------------------|-------------------------|
D|-------------------------|-------------------------|
A|-------------------------|-------------------------|
D|-2-2-2-2-2-2-2-2-2-2-2-2-|-2-2-2-2-2-2-2-2\---12\--|
         |_________________|       |_______|
                  |                    |
           Gradually bend--------------
           up a half step


CHORUS 3 (same as CHORUS 1)


OUTRO


e|---------------------------------|---------------------------------|
b|---------------------------------|---------------------------------|
G|---------------------------------|---------------------------------|
D|---------------------------------|-------------------------------5-|
A|---------------------------------|---------------------------------|\
D|-2-5-4-2-5-4-2-8-7-5-8-7-5-4-2-3-|-2-5-4-2-4-5-2-5-7-2-7-8-5-7-8---| \Play
                                                                         2x
e|---------------------------------|---------------------------------| /
b|---------------------------------|---------------------------------|/
G|---------------------------------|---------------------------------|
D|---------------------------------|---------------------------------|
A|---------------------------------|-0---0-----0-----3---3-----3-----|
D|-2-5-4-2-5-4-2-8-7-5-8-7-5-4-2-3-|-0-0-0-0-0-0-0-0-3-3-3-3-3-3-3-3-|
                                       *   * *   * *   *   * *   * *

e|-----------------------||
b|-----------------------||
G|-----------------------||
D|-2---------------------||
A|-2---------------------||
D|-2---------------------||
   let ring...........


I'll add the guitar solo when I figure it out. If you have any questions,
comments, or suggestions send me a PM or email me at vanguard456@msn.com.
Добавлено: 29.07.2012
Другие материалы по этой песне:

Страница создана 28.03.2012
http://primanota.ru/lamb-of-god/everything-to-nothing-chords.htm
Привет, Гость.
Предлагаем пройти революционный курс по гитаре.
Подарок от PrimaNota.Ru, забирай!