PrimaNota.ru - самый крупный в мире бесплатный архив песенных текстов, аккордов, табулатур и нот


Lamb Of God - Desolation - текст песни, таба, бас-таба, видео

Регистрация Запомнить меня
Войти через:  Facebook Google Twitter Vk Yandex Mail.ru

Lamb Of God - Desolation - текст песни, таба, бас-таба, видео

Печатать
Просмотров: 182
Desolation
Lamb of God
Resolution


Transcribed by; Seth Sanders [livetolieanotherday@hotmail.com]



Gtr I (C# G# C# F# A# D#) - 'Rhythm Guitar I'
Gtr II (C# G# C# F# A# D#) - 'Rhythm Guitar II'
Gtr III (C# G# C# F# A# D#) - 'Lead Guitar I'
Gtr IV (C# G# C# F# A# D#) - 'Lead Guitar II'

   Intro
    Q=136
    C#5
   4/4
    Gtr I
    PM------|                            PM--|
    S S   S S  S  S  S  S  S  S  S  S  S S S S
||---------------------------------------------|
||o--------------------------------------------|
||---------------------------------------------|
||---------------------------------------------|
||o--------------------------------------------|
||--0-0---0-0-12h13-13-13-10h12-12-12-\3-0-0-0-|
|
|   Gtr II
|   PM------|
|   S T T S S  H.
||---------------------------------------------|
||o--------------------------------------------|
||---------------------------------------------|
||---------------------------------------------|
||o-0-0-0-0-0----------------------------------|
||--0-0-0-0-0----------------------------------|


      C#5
    PM------------------------------------|
  S S S S  S   S  S  S  S S S S  S   S  S  S
|---------------------------------------------|
|---------------------------------------------|
|---------------------------------------------|
|---------------------------------------------|
|---------------------------------------------|
|-3-0-0-0-15--15-15-15--0-0-0-0-15--15-15-15--|
|
|     PM       PM-----------|        PM
| S S E   +S   E     E.     E   +S   E     S
|---------------------------------------------|
|---------------------------------------------|
|---------------------------------------------|
|---------------------------------------------|
|-----0---(0)--0------------0---(0)--0--------|
|---x-0---(0)--0-----x------0---(0)--0--------|


  C#5
  PM----|                             PM--|
  S S S S  S  S  S  S  S  S  S  S  S  S S S
|-------------------------------------------|
|-------------------------------------------|
|-------------------------------------------|
|-------------------------------------------|
|-------------------------------------------|
|-0-0-0-0-12h13-13-13-10h12-12-12-\3--0-0-0-|
|
| PM----|
| S S S S  H                       E.     S
|-------------------------------------------|
|-------------------------------------------|
|-------------------------------------------|
|-------------------------------------------|
|-0-0-0-0-----------------------------------|
|-0-0-0-0---------------------------------0h|


                              E
      PM----|         PM--------|
  S S S S S S S S S S S S S S S S
|----------------------------------||
|---------------------------------o||
|----------------------------------||
|----------------------------------||
|-----------------------------0-0-o||
|-3p0-0-0-0-0-3p0h3p0-0-0-0-0-0-0--||
|
|     PM----|         PM--------|
| S S S S S S S S S S S S S S S S
|----------------------------------||
|---------------------------------o||
|----------------------------------||
|----------------------------------||
|-----------------------------0-0-o||
|-3p0-0-0-0-0-3p0h3p0-0-0-0-0-3-3--||


    C#      C# D        B  C#       E  C#
   4/4
    Gtrs I, II
    PM----|                            PM--|
    S S S S  S  S  S  S  S  S  S  S  S S S S
||-------------------------------------------|
||o------------------------------------------|
||-------------------------------------------|
||-------------------------------------------|
||o------------------------------------------|
||--0-0-0-0-12h13-13-13-10h12-12-12-\3-0-0-0-|


  E C#    E           C#      E
    PM---------------------------------|
  S S S S  S  S  S  S S S S S  S  S  S  S
|-----------------------------------------|
|-----------------------------------------|
|-----------------------------------------|
|-----------------------------------------|
|-----------------------------------------|
|-3-0-0-0-15-15-15-15-0-0-0-0-15-15-15-15-|


  PM----|                            PM--|
  S S S S  S  S  S  S  S  S  S  S  S S S S
|------------------------------------------|
|------------------------------------------|
|------------------------------------------|
|------------------------------------------|
|------------------------------------------|
|-0-0-0-0-12h13-13-13-10h12-12-12-\3-0-0-0-|


  1.                                  2.
      PM----|         PM--------|         PM----|         PM----|
  S S S S S S S S S S S S S S S S     S S S S S S S S S S S S S S E
|----------------------------------||---------------------------------||
|---------------------------------o||---------------------------------||
|----------------------------------||---------------------------------||
|----------------------------------||---------------------------------||
|---------------------------------o||-----------------------------3/--||
|-3p0-0-0-0-0-3p0h3p0-0-0-0-0-0-0--||-3p0-0-0-0-0-3p0h3p0-0-0-1-2S3/--||


   Verse
    Gtrs I, II
     S  S S  S  S S  S  S S  S  S S  S  S S  S
||---------------------------------------------|
||o--------------------------------------------|
||---------------------------------------------|
||---------------------------------------------|
||o--------------------------------------------|
||--15p12p0-15p12p0-15p12p0-15p12p0-15p12p0-12h|


   S  S S  S  S S  S  S S  S  S S  S  S S  S
|---------------------------------------------|
|---------------------------------------------|
|---------------------------------------------|
|---------------------------------------------|
|---------------------------------------------|
|-15p12p0-15p12p0-15p12p0-15p12p0-15p12p0-12--|


   S  S S  S  S S  S S S  S S S  S S S  S
|-----------------------------------------|
|-----------------------------------------|
|-----------------------------------------|
|-----------------------------------------|
|-----------------------------------------|
|-13p12p0-13p12p0-12p0-0-12p0-0-12p0-0-12h|


   S  S S  S  S S  S S S  S S S  S S S  S
|------------------------------------------||
|-----------------------------------------o||
|------------------------------------------||
|------------------------------------------||
|-----------------------------------------o||
|-13p12p0-13p12p0-12p0-0-12p0-0-12p0-0-12--||


   Pre-Chorus
    Gtrs I, II
       PM|    PM|    PM|    PM|                PM|   PM|   PM|   PM|
     S S S  S S S  S S S  S S S  S S  S S    S S S S S S S S S S S S S S S S
||----------------------------------------|-----------------------------------|
||o---------------------------------------|-----------------------------------|
||----------------------------------------|-----------------------------------|
||----------------------------------------|-----------------------------------|
||o---------------------------------------|-----------------------------------|
||--10-0-0-12-0-0-13-0-0-12-0-0-10p0h12p0h|=10-0-0-8-0-0-7-0-0-8-0-0-7p0h5p0--|


  Gtr I
          PM|         PM|
  S S S S S S S S S S S S S S S S
|---------------------------------|
|---------------------------------|
|---------------------------------|
|---------------------------------|
|---------------------------------|
|-3h5-5-5-5-5-3h5-5-5-5-5-3h5-5-5-|
|
| Gtr II
|         PM|         PM|
| S S S S S S S S S S S S S S S S
|---------------------------------|
|---------------------------------|
|---------------------------------|
|---------------------------------|
|---------------------------------|
|-0h5-5-5-5-5-0h5-5-5-5-5-0h5-5-5-|


  1.                                  2.
  PM----|           PM|
  S S S S S S S S S S S S S S S S     H.      a  Q
|----------------------------------||-----------------||
|---------------------------------o||-----------------||
|----------------------------------||-----------------||
|----------------------------------||-----------------||
|---------------3h5-6-5-3---------o||-1-------x-------||
|-0-1-0-1-3h5h6-----------6p5p3h5--||-1-------x--5\---||
|
| PM----|           PM|
| S S S S S S S S S S S S S S S S     H.      a  Q
|----------------------------------||-----------------||
|---------------------------------o||-----------------||
|----------------------------------||-----------------||
|---------------1h3-5-3-1----------||-----------------||
|---------0h1h3-------------------o||-1-------x-------||
|-3-1-3-1-----------------3p1p0h1--||-1-------x-12\---||


   Chorus
   4/4
    Gtrs I, II
    PM----|                            PM--|
    S S S S  S  S  S  S  S  S  S  S  S S S S
||-------------------------------------------|
||o------------------------------------------|
||-------------------------------------------|
||-------------------------------------------|
||o------------------------------------------|
||--0-0-0-0-12h13-13-13-10h12-12-12-\3-0-0-0-|


    PM---------------------------------|
  S S S S  S  S  S  S S S S S  S  S  S  S
|-----------------------------------------|
|-----------------------------------------|
|-----------------------------------------|
|-----------------------------------------|
|-----------------------------------------|
|-3-0-0-0-15-15-15-15-0-0-0-0-15-15-15-15-|


  PM----|                            PM--|
  S S S S  S  S  S  S  S  S  S  S  S S S S
|------------------------------------------|
|------------------------------------------|
|------------------------------------------|
|------------------------------------------|
|------------------------------------------|
|-0-0-0-0-12h13-13-13-10h12-12-12-\3-0-0-0-|


  1.                                  2.
      PM----|         PM---------------|
  S S S S S S S S S S S S S S S S      Q  H    S S E
|----------------------------------||-----------------||
|---------------------------------o||-----------------||
|----------------------------------||-----------------||
|----------------------------------||-----------------||
|---------------------------------o||--0-------x-x-3/-||
|-3p0-0-0-0-0-3p0h3p0-0-0-0-0-0-0--||--0-------x-x-3/-||


 Lead (Mark Morton)
  Gtrs I, II
    S  S S  S  S S  S  S S  S  S S  S  S S  S
|---------------------------------------------|
|---------------------------------------------|
|---------------------------------------------|
|---------------------------------------------|
|---------------------------------------------|
|--15p12p0-15p12p0-15p12p0-15p12p0-15p12p0-12h|
|
| Gtr III
|   ~~~~~~~~~~~~~~~~~~~~~~~~~~~~~~~~~~~~~~~~~~~
|   W
|---------------------------------------------|
|-/10-----------------------------------------|
|---------------------------------------------|
|---------------------------------------------|
|---------------------------------------------|
|---------------------------------------------|
|
| Gtr IV
|   ~~~~~~~~~~~~~~~~~~~~~~~~~~~~~~~~~~~~~~~~~~~
|   W
|---------------------------------------------|
|-/15-----------------------------------------|
|---------------------------------------------|
|---------------------------------------------|
|---------------------------------------------|
|---------------------------------------------|


    S  S S  S  S S  S  S S  S  S S  S  S  S  S
|----------------------------------------------|
|----------------------------------------------|
|----------------------------------------------|
|----------------------------------------------|
|----------------------------------------------|
|--15p12p0-15p12p0-15p12p0-15p12p0-15p12p=0-12-|
|
|~~~~~~                                   PM
|   H.                              E     E
|----------------------------------------------|
|--/8------------------------------------------|
|-----------------------------------9-----7----|
|----------------------------------------------|
|----------------------------------------------|
|----------------------------------------------|
|
|~~~~~~                                   PM
|   H.                              E     E
|----------------------------------12----------|
|-/13------------------------------------15----|
|----------------------------------------------|
|----------------------------------------------|
|----------------------------------------------|
|----------------------------------------------|


   S  S S  S  S S  S S S  S S S  S S S  S
|-----------------------------------------|
|-----------------------------------------|
|-----------------------------------------|
|-----------------------------------------|
|-----------------------------------------|
|-13p12p0-13p12p0-12p0-0-12p0-0-12p0-0-12h|
|
|  ~~~~~~~~~~~~~~~~~~~~~~~~~~~~~~~~~~~~~~~~
|  W
|-----------------------------------------|
|-----------------------------------------|
|--9--------------------------------------|
|-----------------------------------------|
|-----------------------------------------|
|-----------------------------------------|
|
|  ~~~~~~~~~~~~~~~~~~~~~~~~~~~~~~~~~~~~~~~~
|  W
|-12--------------------------------------|
|-10--------------------------------------|
|-----------------------------------------|
|-----------------------------------------|
|-----------------------------------------|
|-----------------------------------------|


    S   S S  S  S S  S S   S    S S S  S S S  S
|-----------------------------------------------||
|-----------------------------------------------||
|-----------------------------------------------||
|-----------------------------------------------||
|-----------------------------------------------||
|--13p=12p0-13p12p0-12p0---0---12p0-0-12p0-0-12-||
|
|                          \2
|~~~~~~
|  +H                      H
|-----------------------------------------------||
|-----------------------------------------------||
|--(9)--------------------(9)-------------------||
|------------------------(<9>)------------------||
|-----------------------------------------------||
|-----------------------------------------------||
|
|                          \2
|~~~~~~
|  +H                     +H
|-(12)-------------------(12)-------------------||
|-(10)-------------------(10)-------------------||
|-----------------------------------------------||
|-----------------------------------------------||
|-----------------------------------------------||
|-----------------------------------------------||


   Verse
    Gtrs I, II
     S  S S  S  S S  S  S S  S  S S  S  S S  S
||---------------------------------------------|
||o--------------------------------------------|
||---------------------------------------------|
||---------------------------------------------|
||o--------------------------------------------|
||--15p12p0-15p12p0-15p12p0-15p12p0-15p12p0-12h|


   S  S S  S  S S  S  S S  S  S S  S  S S  S
|---------------------------------------------|
|---------------------------------------------|
|---------------------------------------------|
|---------------------------------------------|
|---------------------------------------------|
|-15p12p0-15p12p0-15p12p0-15p12p0-15p12p0-12--|


   S  S S  S  S S  S S S  S S S  S S S  S
|-----------------------------------------|
|-----------------------------------------|
|-----------------------------------------|
|-----------------------------------------|
|-----------------------------------------|
|-13p12p0-13p12p0-12p0-0-12p0-0-12p0-0-12h|


   S  S S  S  S S  S S S  S S S  S S S  S
|------------------------------------------||
|-----------------------------------------o||
|------------------------------------------||
|------------------------------------------||
|-----------------------------------------o||
|-13p12p0-13p12p0-12p0-0-12p0-0-12p0-0-12--||


   Pre-Chorus
    Gtrs I, II
       PM|    PM|    PM|    PM|                PM|   PM|   PM|   PM|
     S S S  S S S  S S S  S S S  S S  S S    S S S S S S S S S S S S S S S S
||----------------------------------------|-----------------------------------|
||o---------------------------------------|-----------------------------------|
||----------------------------------------|-----------------------------------|
||----------------------------------------|-----------------------------------|
||o---------------------------------------|-----------------------------------|
||--10-0-0-12-0-0-13-0-0-12-0-0-10p0h12p0h|=10-0-0-8-0-0-7-0-0-8-0-0-7p0h5p0--|


  Gtr I
          PM|         PM|
  S S S S S S S S S S S S S S S S
|---------------------------------|
|---------------------------------|
|---------------------------------|
|---------------------------------|
|---------------------------------|
|-3h5-5-5-5-5-3h5-5-5-5-5-3h5-5-5-|
|
| Gtr II
|         PM|         PM|
| S S S S S S S S S S S S S S S S
|---------------------------------|
|---------------------------------|
|---------------------------------|
|---------------------------------|
|---------------------------------|
|-0h5-5-5-5-5-0h5-5-5-5-5-0h5-5-5-|


  1.                                  2.
  PM----|           PM|
  S S S S S S S S S S S S S S S S     H.      a  Q
|----------------------------------||-----------------||
|---------------------------------o||-----------------||
|----------------------------------||-----------------||
|----------------------------------||-----------------||
|---------------3h5-6-5-3---------o||-1-------x-------||
|-0-1-0-1-3h5h6-----------6p5p3h5--||-1-------x-15\---||
|
| PM----|           PM|
| S S S S S S S S S S S S S S S S     H.      a  Q
|----------------------------------||-----------------||
|---------------------------------o||-----------------||
|----------------------------------||-----------------||
|---------------1h3-5-3-1----------||-----------------||
|---------0h1h3-------------------o||-1-------x-------||
|-3-1-3-1-----------------3p1p0h1--||-1-------x-12\---||


   Chorus
   4/4
    Gtrs I, II
    PM----|                            PM--|
    S S S S  S  S  S  S  S  S  S  S  S S S S
||-------------------------------------------|
||o------------------------------------------|
||-------------------------------------------|
||-------------------------------------------|
||o------------------------------------------|
||--0-0-0-0-12h13-13-13-10h12-12-12-\3-0-0-0-|


    PM---------------------------------|
  S S S S  S  S  S  S S S S S  S  S  S  S
|-----------------------------------------|
|-----------------------------------------|
|-----------------------------------------|
|-----------------------------------------|
|-----------------------------------------|
|-3-0-0-0-15-15-15-15-0-0-0-0-15-15-15-15-|


  PM----|                            PM--|       PM----|         PM--------|
  S S S S  S  S  S  S  S  S  S  S  S S S S   S S S S S S S S S S S S S S S S
|------------------------------------------|----------------------------------||
|------------------------------------------|---------------------------------o||
|------------------------------------------|----------------------------------||
|------------------------------------------|----------------------------------||
|------------------------------------------|---------------------------------o||
|-0-0-0-0-12h13-13-13-10h12-12-12-\3-0-0-0-|-3p0-0-0-0-0-3p0h3p0-0-0-0-0-0-0--||


 Interlude
 7/4
  Gtr I                       Gtrs I, II
  PM--|      ~~~PM--|      ~~~PM--|      ~~~PM--|      ~~~PM--|
  S S S E   +S  S S S E   +S  S S S E   +S  S S S E   +S  S S S S
|-------------------------------------------------------------------|
|-------------------------------------------------------------------|
|-------------------------------------------------------------------|
|-------------------------------------------------------------------|
|-------------------------------------------------------------------|
|-0-0-0-3b4-(3)-0-0-0-6b7-(6)-0-0-0-3b4-(3)-0-0-0-6b7-(6)-0-0-0-3b4-|


 1/4
       ~~~PM----|            PM--------------|
  +S  +S  S S   S E   +S     S S S S   S S S S
|-------------|------------|---------|----------|
|-------------|------------|---------|----------|
|-------------|------------|---------|----------|
|-------------|------------|---------|----------|
|-------------|------------|---------|----------|
|-(3)-(3)-0-0-|-0-6b7-(6)\-|-0-0-0-0-|-0-0-0-0--|


 4/2
  Gtrs I, II
  PM--|      ~~~PM--|      ~~~PM--|      ~~~PM--|      ~~~PM------------|
  S S S E   +S  S S S E   +S  S S S E   +S  S S S E   +S  S S S S S S S S
|-------------------------------------------------------------------------|
|-------------------------------------------------------------------------|
|-------------------------------------------------------------------------|
|-------------------------------------------------------------------------|
|-------------------------------------------------------------------------|
|-0-0-0-6b7-(6)-0-0-0-3b4-(3)-0-0-0-6b7-(6)-0-0-0-3b4-(3)-0-0-0-0-0-0-0-0-|


  PM--|      ~~~PM--|      ~~~PM--|          ~~~PM--|          PM------------|
  S S S E   +S  S S S E   +S  S S S S   +S  +S  S S S E   +S   S S S S S S S S
|------------------------------------------------------------------------------|
|------------------------------------------------------------------------------|
|------------------------------------------------------------------------------|
|------------------------------------------------------------------------------|
|------------------------------------------------------------------------------|
|-0-0-0-3b4-(3)-0-0-0-6b7-(6)-0-0-0-3b4-(3)-(3)-0-0-0-6b7-(6)\-0-0-0-0-0-0-0-0-|


 4/2
  PM--|      ~~~PM--|      ~~~PM--|      ~~~PM--|      ~~~PM----|
  S S S E   +S  S S S E   +S  S S S E   +S  S S S E   +S  S S S S   Q
|-----------------------------------------------------------------------||
|-----------------------------------------------------------------------||
|-----------------------------------------------------------------------||
|-----------------------------------------------------------------------||
|-----------------------------------------------------------------/12\--||
|-0-0-0-6b7-(6)-0-0-0-3b4-(3)-0-0-0-6b7-(6)-0-0-0-3b4-(3)-0-0-0-0-/12\--||


    Gtrs I, II
    PM--|    PM--|    PM--|    PM--|    PM------------|
    S S S E. S S S E. S S S E. S S S E. S S S S S S S S
||------------------------------------------------------|
||o-----------------------------------------------------|
||------------------------------------------------------|
||------------------------------------------------------|
||o-------3--------6--------3--------6------------------|
||--0-0-0-3--0-0-0-6--0-0-0-3--0-0-0-6--0-0-0-0-0-0-0-0-|


  Gtr I
  PM--|    PM--|     PM--|     PM--|    PM------------|
  S S S E. S S S  E. S S S  E. S S S E. S S S S S S S S
|--------------------------------------------------------||
|-------------------------------------------------------o||
|--------------------------------------------------------||
|--------------------------------------------------------||
|-------6---------3---------6--------3------------------o||
|-0-0-0-6--0-0-0--3--0-0-0--6--0-0-0-3--0-0-0-0-0-0-0-0--||
|
| Gtr II
| PM--|    PM--|  ~~~PM--|  ~~~PM--| ~~ PM------------|
| S S S E. S S S  E. S S S  E. S S S E. S S S S S S S S
|--------------------------------------------------------||
|-------------------------------------------------------o||
|--------------------------------------------------------||
|--------------------------------------------------------||
|-------6----------------------------3------------------o||
|-0-0-0-6--0-0-0-[3]-0-0-0-[6]-0-0-0-3--0-0-0-0-3-3-0-0--||


   Pre-Chorus
    Gtrs I, II
       PM|    PM|    PM|    PM|                PM|   PM|   PM|   PM|
     S S S  S S S  S S S  S S S  S S  S S    S S S S S S S S S S S S S S S S
||----------------------------------------|-----------------------------------|
||o---------------------------------------|-----------------------------------|
||----------------------------------------|-----------------------------------|
||----------------------------------------|-----------------------------------|
||o---------------------------------------|-----------------------------------|
||--10-0-0-12-0-0-13-0-0-12-0-0-10p0h12p0h|=10-0-0-8-0-0-7-0-0-8-0-0-7p0h5p0--|


  Gtr I
          PM|         PM|
  S S S S S S S S S S S S S S S S
|---------------------------------|
|---------------------------------|
|---------------------------------|
|---------------------------------|
|---------------------------------|
|-3h5-5-5-5-5-3h5-5-5-5-5-3h5-5-5-|
|
| Gtr II
|         PM|         PM|
| S S S S S S S S S S S S S S S S
|---------------------------------|
|---------------------------------|
|---------------------------------|
|---------------------------------|
|---------------------------------|
|-0h5-5-5-5-5-0h5-5-5-5-5-0h5-5-5-|


  1.                                  2.
  PM----|           PM|
  S S S S S S S S S S S S S S S S     H.      a  Q
|----------------------------------||-----------------||
|---------------------------------o||-----------------||
|----------------------------------||-----------------||
|----------------------------------||-----------------||
|---------------3h5-6-5-3---------o||-1-------x-------||
|-0-1-0-1-3h5h6-----------6p5p3h5--||-1-------x-15\---||
|
| PM----|           PM|
| S S S S S S S S S S S S S S S S     H.      a  Q
|----------------------------------||-----------------||
|---------------------------------o||-----------------||
|----------------------------------||-----------------||
|---------------1h3-5-3-1----------||-----------------||
|---------0h1h3-------------------o||-1-------x-------||
|-3-1-3-1-----------------3p1p0h1--||-1-------x-12\---||


   Chorus
   4/4
    Gtrs I, II
    PM----|                            PM--|
    S S S S  S  S  S  S  S  S  S  S  S S S S
||-------------------------------------------|
||o------------------------------------------|
||-------------------------------------------|
||-------------------------------------------|
||o------------------------------------------|
||--0-0-0-0-12h13-13-13-10h12-12-12-\3-0-0-0-|


    PM---------------------------------|
  S S S S  S  S  S  S S S S S  S  S  S  S
|-----------------------------------------|
|-----------------------------------------|
|-----------------------------------------|
|-----------------------------------------|
|-----------------------------------------|
|-3-0-0-0-15-15-15-15-0-0-0-0-15-15-15-15-|


  PM----|                            PM--|       PM----|         PM--------|
  S S S S  S  S  S  S  S  S  S  S  S S S S   S S S S S S S S S S S S S S S S  4x
|------------------------------------------|----------------------------------||
|------------------------------------------|---------------------------------o||
|------------------------------------------|----------------------------------||
|------------------------------------------|----------------------------------||
|------------------------------------------|---------------------------------o||
|-0-0-0-0-12h13-13-13-10h12-12-12-\3-0-0-0-|-3p0-0-0-0-0-3p0h3p0-0-0-0-0-0-0--||


   Outro
    Gtrs I, II, IV
        PM--------|     PM--------|       PM--------|   PM|   PM|   PM
    S S S S S S S S S S S S S S S S   S S S S S S S S S S S S S S S S
||----------------------------------|----------------------------------|
||o---------------------------------|----------------------------------|
||----------------------------------|----------------------------------|
||----------------------------------|----------------------------------|
||o---------------------------------|----------------------------------|
||--1p0-0-0-0-0-0-0-1p0-0-0-0-0-0-0-|-1p0-0-0-0-0-0-0-3-0-0-5-0-0-6-0--|


      PM--------|     PM--------|       PM--------|   PM|   PM|   PM
  S S S S S S S S S S S S S S S S   S S S S S S S S S S S S S S S S
|---------------------------------|---------------------------------|
|---------------------------------|---------------------------------|
|---------------------------------|---------------------------------|
|---------------------------------|---------------------------------|
|---------------------------------|---------------------------------|
|-1p0-0-0-0-0-0-0-1p0-0-0-0-0-0-0-|-1p0-0-0-0-0-0-0-3-0-0-5-0-0-6-0-|


      PM--------|     PM--------|       PM--------|   PM|   PM|   PM
  S S S S S S S S S S S S S S S S   S S S S S S S S S S S S S S S S
|---------------------------------|---------------------------------|
|---------------------------------|---------------------------------|
|---------------------------------|---------------------------------|
|---------------------------------|---------------------------------|
|---------------------------------|---------------------------------|
|-1p0-0-0-0-0-0-0-1p0-0-0-0-0-0-0-|-1p0-0-0-0-0-0-0-3-0-0-5-0-0-6-0-|


      PM--------|     PM------------------|           PM|
  S S S S S S S S S S S S S S S S   S S S S S S S S S S S S S S S S
|---------------------------------|----------------------------------||
|---------------------------------|---------------------------------o||
|---------------------------------|----------------------------------||
|---------------------------------|----------------------------------||
|---------------------------------|---------------3h5-6-5-3---------o||
|-1p0-0-0-0-0-0-0-1p0-0-0-0-0-0-0-|-0-1-0-1-3h5h6-----------6p5p3h5--||


  w          S S S S S S S S S S S S S S S S
|----------|-x-x---------x-x---------x-x-----*|
|----------|-x-x-----x-x-x-x-x-x---x-x-x-x---*|
|----------|-x-x-----x-x-----x-x---x---------*|
|----------|-x-x-----x-x-----x-x---x---x-x---*|
|-0--------|-x-x-x-x-x-x-x-x-x-x---x-x---x---*|
|-0--------|-x-x-x-x-----x-x-----x---x-x---x-*|



Duration Legend
---------------
W - whole; H - half; Q - quarter; E - 8th; S - 16th; T - 32nd; X - 64th; a - acciaccatura
+ - note tied to previous; . - note dotted; .. - note double dotted
Uncapitalized letters represent notes that are staccato (1/2 duration)
Irregular groupings are notated above the duration line
Duration letters will always appear directly above the note/fret number it represents the
duration for.  Duration letters with no fret number below them represent rests.  Multi-
bar rests are notated in the form Wxn, where n is the number of bars to rest for.  Low
melody durations appear below the staff

Tablature Legend
----------------
 h   - hammer-on
 p   - pull-off
 b   - bend
 pb  - pre-bend
 r   - bend release (if no number after the r, then release immediately)
 /\  - slide into or out of (from/to "nowhere")
 s   - legato slide
 S   - shift slide
 - natural harmonic
[n]  - artificial harmonic
n(n) - tapped harmonic
 ~   - vibrato
 tr  - trill
 T   - tap
 TP  - trem. picking
 PM  - palm muting
\n/  - tremolo bar dip; n = amount to dip
 \n  - tremolo bar down
 n/  - tremolo bar up
/n\  - tremolo bar inverted dip
 =   - hold bend; also acts as connecting device for hammers/pulls
 <> - volume swell (louder/softer)
 x   - on rhythm slash represents muted slash
 o   - on rhythm slash represents single note slash

Misc Legend
-----------
 |  - bar
||  - double bar
||o - repeat start
o|| - repeat end
*|  - double bar (ending)
 :  - bar (freetime)
 $  - Segno
 &  - Coda
Tempo markers -  = BPM(8/16=s8/s16), where s8 = swing 8ths, s16 = swing 16ths

Добавлено: 04.11.2013
Другие материалы по этой песне:

Страница создана 06.03.2012
http://primanota.ru/lamb-of-god/desolation-chords.htm
Привет, Гость.
Предлагаем пройти революционный курс по гитаре.
Подарок от PrimaNota.Ru, забирай!