PrimaNota.ru - самый крупный в мире бесплатный архив песенных текстов, аккордов, табулатур и нот


Gojira - Toxic Garbage Island - текст песни, таба, бас-таба, видео

Регистрация Запомнить меня
Войти через:  Facebook Google Twitter Vk Yandex Mail.ru

Gojira - Toxic Garbage Island - текст песни, таба, бас-таба, видео

Печатать
Просмотров: 201
Авторы музыки: Mario Duplantier, Joe Duplantier
Авторы текста: Joe Duplantier
Author/Artist: Gojira
Title: Toxic Garbage Island
Album: The Way Of All flesh
Transcribed by: Jaymz88
Drop C

-------------------------0----------------------------------------------------|
-------------------------0----------------------------------------------------|
-------------------------0----------------------------------------------------|
-----------------------------------------------0------------------------------|
-----------------------------------------------4------------------------------|
------2-2-2-2-2-2-2-2-2-----0--2-2-2--0-0--1-------0---1----------------------|
      - - - - - - - - -     -  - - -  - -  -       -

------------------------------------------------------------------------------|
------------------------------------------------------------------------------|
------------------------------------------------------------------------------|
----------------------------------------------------0-------------------------|
----------------------------------------------------4-------------------------|
------18-18-18-18-18-18-18-18-18--0--1---3b--0--1-------0---1-----------------|
                                  -  -  A.B  -  -       -

------------------------------------------------------------------------------|
------------------------------------------------------------------------------|
------------------------------------------------------------------------------|
------------------------------------------------------------------------------|
----------------------------------------------------3br-----------------------|
------18-18-18-18-18-18-18-18-18--0--1---3b--0--1-----------------------------|
                                  -  -  A.H  -  -   A.H

------------------------------------------------------------------------------|
------------------------------------------------------------------------------|
------------------------------------------------------------------------------|
-----------------------0----------5---------5--4--3---------------------------|
-----------------------0----0--1--3---0--1--3--2--1---------------------------|
-------0-0-0-0-0-0-0-0-0----0--1--3---0--1--3--2--1---------------------------|
       - - - - - - - -      -  -      -  -


------------------------------------------------------------------------------|
------------------------------------------------------------------------------|
------------------------------------------------------------------------------|
---------------------0----------5---------------------------------------------|
---------------------0----------3---------------------------------------------|
-----0-0-0-0-0-0-0-0-0----0--1--3---0--1---3--2--1----------------------------|
     - - - - - - - -      -  -      -  -


------------------------------------------------------------------------------|
------------------------------------------------------------------------x2----|
------------------------------------------------------------------------------|
------------------------------------------------------------------------------|
--------5--------5-------5-------5--------3-------3--------2--------2---------|
--0--3-----0--3-----0--3----0--3----0--2-----0--2----0--2-----0--2------------|


------------------------------------------------------------------------------|
-------------------------------------------------------------------------x2---|
------------------------------------------------------------------------------|
------------------------------------------------------------------------------|
--------5--------5-------5-------5h7--------3--------3--------2--------2------|
--0--3-----0--3-----0--3----0--3------0--2-----0--2-----0--2-----0--0---------|


-------------------------0---------------------0------------------------------|
-------------------------0---------------------0------------------------------|
-------------------------0---------------------0------------------------------|
------------------------------------------------------------------------------|
------2-2-2-2-2-2-2-2-2-----0--2-2-2---0-0--1---------------------------------|
------2-2-2-2-2-2-2-2-2-----0--2-2-2---0-0--1---------------------------------|
      - - - - - - - - -     -  - - -   - -  -

-------------------------------------------------------------------------------|
-------------------------------------------------------------------------------|
-------------------------------------------------------------------------------|
-------------------------------------------------------------------------------|
-------------------------------------------------------------------------------|
--0-0-0-0-0-0-0-0-0-0-0-0-0--0-0-0-0-0-0-0-0-0-0-0-0-0--0-0-0-0-0-0-0-0-0-0----|
 PM----------------------------------------------------------------------------|

-------------------------------------------------------------------------------|
-------------------------------------------------------------------------------|
-------------------------------------------------------------------------------|
-------------------------------------------------------------------------------|
-------------------------------------------------------------------------------|
-0-0--0-0-0-0-0-0-0-0-0-0-0-0--0-0-3-3-3-3-3-3-3-3-3-3--3-3-3-3-3-3-3-3-3-3----|
 ------------------------------------------------------------------------------|

-------------------------------------------------------------------------------|
-------------------------------------------------------------------------------|
-------------------------------------------------------------------------------|
-------------------------------------------------------------------------------|
-------------------------------------------------------------------------------|
-3-3--3-3-5-5-5-5-5-5-5-5-5-5--5-5-2-2-2-2-2-2-2-2-2-2--0-0-3-3-3-3-3-3-3-3----|
 ------------------------------------------------------------------------------|

-------------------------------------------------------------------------------|
-------------------------------------------------------------------------------|
-------------------------------------------------------------------------------|
-------------------------------------------------------------------------------|
-------------------------------------------------------------------------------|
-3-3--3-3-3-3-3-3-3-3-3-3-3-3--3-3-5-5-5-5-5-5-5-5-5-5--5-5-2-2-2-2-2-2-2-2----|
 ------------------------------------------------------------------------------|

-------0----------------------------------------------------------------------|
-------0----------------------------------------------------------------------|
-------0----------------------------------------------------------------------|
------------------------------------------------------------------------------|
------------------------------------------------------------------------------|
-2-2---3----------------------------------------------------------------------|
 ---


------------------------------------------------------------------------------|
------------------------------------------------------------------------x2----|
------------------------------------------------------------------------------|
------------------------------------------------------------------------------|
--------5--------5-------5-------5--------3-------3--------2--------2---------|
--0--3-----0--3-----0--3----0--3----0--2-----0--2----0--2-----0--2------------|


------------------------------------------------------------------------------|
-------------------------------------------------------------------------x2---|
------------------------------------------------------------------------------|
------------------------------------------------------------------------------|
--------5--------5-------5-------5h7--------3--------3--------2--------2------|
--0--3-----0--3-----0--3----0--3------0--2-----0--2-----0--2-----0--2---------|


------------------------------------------------------------------------------|
------------------------------------------------------------------------------|
------------------------------------------------------------------------------|
------------------------------------------------------------------------------|
--5-5-5-5-5-5--7-7-7-7-7-7--8-8-8-8-8-8---------------------------------------|
-----------------------------------------3-3-3-3-3-3-3-3-3--5-5-5--3-3-3-2-2--|


------------------------------------------------------------------------------|
------------------------------------------------------------------------------|
------------------------------------------------------------------------------|
------------------------------------------------------------------------------|
----------------------------------5-5-5-5-5-5--7-7-7-7-7-7--8-8-8-8-8-8-------|
-2-2-2-2-2-2-2--3-3-3--0-0-0-0-0-----------------------------------------3-3--|


--------------------------------------------|---------------------------------|
--------------------------------------------|---------------------------------|
--------------------------------------------|---------------------------------|
--------------------------------------------|---------------------------------|
--------------------------------------------|---------------------------------|
-3-3-3-3-3-3-3—2-2-2-2-2-2-2-2-2--0-0-0-0-0-|---------------------------------|


------------------------------------------------------------------------------|
------------------------------------------------------------------------------|
------------------------------------------------------------------------------|
------------------------------------------------------------------------------|
------------------------------------------------------------------------------|
--3----3--5--3--2-----3---2p0--3--2--0---3--5--3--2----/3---/5---3----3--5--3-|


---------------------------------------------------0--------------------------|
---------------------------------------------------0--------------------------|
---------------------------------------------------0--------------------------|
------------------------------------------------------------------------------|
------------------------------------------------------------------------------|
--2----3---2p0--3--2--0----3--5--3--2----2----3-------------------------------|


-------------------------0----------------------------------------------------|
-------------------------0----------------------------------------------------|
-------------------------0----------------------------------------------------|
-----------------------------------------------0------------------------------|
-----------------------------------------------4------------------------------|
------2-2-2-2-2-2-2-2-2-----0--2-2-2--0-0--1-------0---1----------------------|
      - - - - - - - - -     -  - - -  - -  -       -

-------------------------0----------------------------------------------------|
-------------------------0----------------------------------------------------|
-------------------------0----------------------------------------------------|
------------------------------------------------------------------------------|
-----------------------------------------------3br----------------------------|
------2-2-2-2-2-2-2-2-2-----0--2-2-2--0-0--1----------------------------------|
      - - - - - - - - -     -  - - -  - -  -   A.H


------------------------------------------------------------------------------|
------------------------------------------------------------------------------|
------------------------------------------------------------------------------|
-----------------------0----------5---------5--4--3---------------------------|
-----------------------0----0--1--3---0--1--3--2--1---------------------------|
-------0-0-0-0-0-0-0-0-0----0--1--3---0--1--3--2--1---------------------------|
       - - - - - - - -      -  -      -  -
Добавлено: 11.06.2012
Другие материалы по этой песне:

Страница создана 05.03.2012
http://primanota.ru/gojira/toxic-garbage-island-chords.htm
Привет, Гость.
Предлагаем пройти революционный курс по гитаре.
Подарок от PrimaNota.Ru, забирай!