PrimaNota.ru - самый крупный в мире бесплатный архив песенных текстов, аккордов, табулатур и нот


Gojira - Vacuity - текст песни, таба, видео

Регистрация Запомнить меня
Войти через:  Facebook Google Twitter Vk Yandex Mail.ru

Gojira - Vacuity - текст песни, таба, видео

Печатать
Просмотров: 210
Авторы музыки: Mario Duplantier, Joe Duplantier
Авторы текста: Joe Duplantier
Author/Artist: Gojira
Title: Vacuity
Album: The Way Of All Flesh
Transcribed by: Jaymz88
Drop C

Guitar I (Joe)
------------------------------------------------------------------------------|
------------------------------------------------------------------------------|
------------------------------------------------------------------------------|
------------------------------------------------------------------------------|
--0--0--0--0--0--0--0--0--0--0--0--0--0--0--0--0--0--0--0--0--0--0--0--0--0---|
--0--0--0--0--0--0--0--0--0--0--0--0--0--0--0--0--0--0--0--0--0--0--0--0--0---|


Guitar II (Christian)
------------------------------------------------------------------------------|
------------------------------------------------------------------------------|
------------------------------------------------------------------------------|
------------------------------------------------------------------------------|
-----------------------------------------------------------0---0---0----------|
--3--3p2--2br-----0--0h2--3/5--5---5/7--7----7p0---7/8---8---8---8---8--------|


Chorus
------------------------------------------------------------------------------|
------------------------------------------------------------------------------|
------------------------------------------------------------------------------|
--2----3--------------------2----3--------------------------------------------|
--2----3-----5--5--5--5--7--2----3-----7-7-6-6-5-5-4-4-3-3-2-2----------------|
--2----3-----5--5--5--5--7--2----3--------------------------------------------|
                                     A.H - - - - - - - - - - -

------------------------------------------------------------------------------|
------------------------------------------------------------------------------|
------------------------------------------------------------------------------|
--2----3--------------------2----3--------5b----------------------------------|
--2----3-----5--5--5--5--7--2----3--------------------------------------------|
--2----3-----5--5--5--5--7--2----3--------------------------------------------|

------------------------------------------------------------------------------|
------------------------------------------------------------------------------|
------------------------------------------------------------------------------|
------------------------------------------------------------------------------|
--0--0--0--0--0--0--0--0------------------------------------------------------|
--0--0--0--0--0--0--0--0------------------------------------------------------|

Guitar I
------------------------------------------------------------------------------|
------------------------------------------------------------------------------|
------------------------------------------------------------------------------|
------------------------------------------------------------------------------|
--0--0--0--0--0--0--0--0--0--0--0--0--0--0--0--0--0--0--0--0--0--0--0--0--0---|
--0--0--0--0--0--0--0--0--0--0--0--0--0--0--0--0--0--0--0--0--0--0--0--0--0---|

Guitar II
------------------------------------------------------------------------------|
------------------------------------------------------------------------------|
------------------------------------------------------------------------------|
------------------------------------------------------------------------------|
-----------------------------------------------------------0---0---0----------|
--3--3p2--2br-----0--0h2--3/5--5---5/7--7----7p0---7/8---8---8---8---8--------|


Chorus
Follow,      I enter my dimension...
------------------------------------------------------------------------------|
------------------------------------------------------------------------------|
------------------------------------------------------------------------------|
--2----3--------------------2----3--------------------------------------------|
--2----3-----5--5--5--5--7--2----3-----7-7-6-6-5-5-4-4-3-3-2-2----------------|
--2----3-----5--5--5--5--7--2----3--------------------------------------------|
                                     A.H - - - - - - - - - - -

------------------------------------------------------------------------------|
------------------------------------------------------------------------------|
------------------------------------------------------------------------------|
--2----3--------------------2----3--------5b----------------------------------|
--2----3-----5--5--5--5--7--2----3--------------------------------------------|
--2----3-----5--5--5--5--7--2----3--------------------------------------------|

-||---------------------------------------------------------------------------|
-||---------------------------------------------------------------------------|
-||---------------------------------------------------------------------------|
-||---------------------------------------------------------------------------|
-||8--8--8--10-10-10-10-10-10-10-10-10-10--7--7--7--7--7--8--8--8--8--8--5--5-|
-||7--7--7---8--8--8--8--8--8--8--8--8--8--5--5--5--5--5--7--7--7--7--7--3--3-|


---------------------------------------||-------------------------------------|
---------------------------------------||-------------------------------------|
---------------------------------------||-x4----------------------------------|
---------------------------------------||-------------------------------------|
--5--5--5--7--7--7--7--7--3--3--3---2-3||-------------------------------------|
--3--3--3--5--5--5--5--5--2--2--2---2-3||-------------------------------------|


-||---------------------------------------------------------------------------|
-||---------------------------------------------------------------------------|
-||---------------------------------------------------------------------------|
-||--------------2-2-2--------------------------------------------------2-2-2-|
-||-------4-4-4---------4-4-4-------------------------------------4-4-4-------|
-||0-0-0-----------------------3-3-3--3-3-3--3-3-3--3-3-3--0-0-0--------------|


-------------------------|----------------------------------------------------|
--------------------x2---|----------------------------------------------------|
-------------------------|----------------------------------------------------|
-------------------------|---------------2-2-2--------------------------------|
--4-4-4------------------|---------4-4-4-------4-4-4--------------------------|
---------3--3--3--3------|---0-0-0--------------------3-3-3--3-3-3--3-3-3-----|


---------------------------------------------------|--------------------------|
---------------------------------------------------|--------------------------|
---------------------------------------------------|--------------------------|
--------------------2-2-2--------------------------|--------------2-2-2-------|
--------------4-4-4-------4-4-4--------------------|--------4-4-4-------4-4---|
-3-3-3--0-0-0--------------------0h2h3-3-3--3p2p0--|--0-0-0-------------------|


---------------------------------------------------------------------------|-|
---------------------------------------------------------------------------|-|
---------------------------------------------------------------------------|-|
---------------------------------------------2-2-2-------------------------|-|
-4------------------------------------4-4-4---------4-4-4------------------|-|
----3-3-3--3-3-3--3-3-3--3-3-3--0-0-0----------------------3--3--3--3------|-|


------------------------------------------------------------------------------|
------------------------------------------------------------------------------|
------------------------------------------------------------------------------|
------------------------------------------------------------------------------|
------------------------------------------------------------------------------|
--3--3--3--3--3--3--3--3--2--2--2--2------------------------------------------|


-||---------------------------------------------------------------------------|
-||---------------------------------------------------------------------------|
-||---------------------------------------------------------------------------|
-||-------------3-3-3-------------3-3-3-------2-2-2--------------0-0-0--------|
-||-------5-5-5-------5-5-5-------------5-5-5--------------4-4-4-------4-4-4--|
-||-0-0-0-------------------0-0-0--------------------0-0-0--------------------|


--------------------------------|---------------------------------------------|
----------------------------x2--|---------------------------------------------|
--------------------------------|---------------------------------------------|
-2-2-2--3-3-3--5-5-5--3p2-------|--------------2-2-2--------------2-2-2-------|
--------------------------------|--------4-4-4-------4-4-4--------------4-4---|
--------------------------------|--0-0-0--------------------0-0-0-------------|


------------------------------------------------------------------------------|
------------------------------------------------------------------------------|
------------------------------------------------------------------------------|
----2-2-2-------------2-2-2-------------------------------------------2-2-2---|
-4--------------4-4-4-------4-4-4-------------------------------4-4-4---------|
----------0-0-0--------------------0h2h3-3--3--3--3p2p0---0-0-0---------------|


---------------------------------------------------------------------------|-|
---------------------------------------------------------------------------|-|
---------------------------------------------------------------------------|-|
-------------2-2-2-------2-2-2-------------2-2-2---------2h3-3-3/5-5--5/7-7|-|
-4-4-4-------------4-4-4-------------4-4-4-------4-4-4---------------------|-|
-------0-0-0-------------------0-0-0---------------------------------------|-|


-||---------------------------------------------------------------------------|
-||---------------------------------------------------------------------------|
-||---------------------------------------------------------------------------|
-||-------------3-3-3-------------3-3-3-------2-2-2--------------0-0-0--------|
-||-------5-5-5-------5-5-5-------------5-5-5--------------4-4-4-------4-4-4--|
-||-0-0-0-------------------0-0-0--------------------0-0-0--------------------|


----------------------------|-------------------------------------------------|
----------------------------|-------------------------------------------------|
----------------------------|-------------------------------------------------|
--2-2-2--3-3-3--5-5-5--3p2--|---------------5-5-5-------------5-5-5-------5---|
----------------------------|---------7-7-7-------7-7-7-------------7-7-7-----|
----------------------------|--0-0-0--------------------0-0-0-----------------|


------------------------------------------------------------------------------|
------------------------------------------------------------------------------|
------------------------------------------------------------------------------|
-5-5--------------5-5-5-------------------------------------------5-5-5-------|
------------7-7-7--------7-7-7------------------------------7-7-7-------7-7---|
------0-0-0---------------------0h2h3-3--3--3--3p2p0--0-0-0-------------------|


--------------------------------------------------------------------------||--|
--------------------------------------------------------------------------||--|
--------------------------------------------------------------------------||--|
----------5-5-5--------5-5-5-------------5-5-5--------2h3--3-3/5-5--5/7-7-||--|
-7---------------7-7-7-------------7-7-7-------7-7-7----------------------||--|
----0-0-0--------------------0-0-0----------------------------------------||--|


------------------------------------------------------------------------------|
------------------------------------------------------------------------------|
------------------------------------------------------------------------------|
------------------------------------------------------------------------------|
--0--0--0--0--0--0------------------------------------------------------------|
--0--0--0--0--0--0------------------------------------------------------------|
Добавлено: 18.07.2012
Другие материалы по этой песне:

Страница создана 12.03.2012
http://primanota.ru/gojira/vacuity-chords.htm
Привет, Гость.
Предлагаем пройти революционный курс по гитаре.
Подарок от PrimaNota.Ru, забирай!