PrimaNota.ru - самый крупный в мире бесплатный архив песенных текстов, аккордов, табулатур и нот


Gojira - Where Dragons Dwell - текст песни, таба, бас-таба, видео

Регистрация Запомнить меня
Войти через:  Facebook Google Twitter Vk Yandex Mail.ru

Gojira - Where Dragons Dwell - текст песни, таба, бас-таба, видео

Печатать
Просмотров: 263
#-----------------------------------------------------------------------------#
#-- File created with Instab - http://www.pconline.com/~smcarey/instab.html --#
#-----------------------------------------------------------------------------#

Author/Artist: Gojira
Title: Where Dragons Dwell
Album: From Mars To Sirius
Transcribed by: Metallica44

------------------------------------------------------------------------------|
------------------------------------------------------------------------------|
------------------------------------------------------------------------------|
--8-----8-----8------8--7--7--5--7--7--5--5/----------------------------------|
--x-----x-----x------x--x--x--x-----x--x--x-----------------------------------|
--6-----6-----6--0-0-6--5--5--3-----5--3--3/--0-0-0-0-0-0-0-1-1------0-0-6b---|
               PM- -                        PM-----------          PM---------|A.H

------------------------------------------------------------------------------|
------------------------------------------------------------------------------|
------------------------------------------------------------------------------|
------------------------------------------------------------------------------|
-------------------------------x3---------------------------------------------|
--6--5-5--6--5--0-0-0-0-0-0---------------------------------------------------|
              PM--------------------------------------------------------------|

------------------------------------------------------------------------------|
------------------------------------------------------------------------------|
------------------------------------------------------------------------------|
--8-----8-----8------8--7--7--5--7--7--5--5/----------------------------------|
--x-----x-----x------x--x--x--x-----x--x--x-----------------------------------|
--6-----6-----6--0-0-6--5--5--3-----5--3--3/--0-0-0-0-0-0-0-1-1-------0-0-6b--|
               PM- -                        PM-----------           PM--------|A.H

-----------------------------------------------------------------------------|
-----------------------------------------------------------------------------|
-----------------------------------------------------------------------------|
----------------8-10---------------------------------------------------------|
----------------x--x---------------------------------------------------------|
--6--5-5--6--5--6--8---------------------------------------------------------|

(With wa)
-----------------------------------------------------------------------------|
-----------------------------------------------------------------------------|
-----------------------------------------------------------------------------|
--------19191919191919191919191919191919-------------------------------------|
---------x-x-x-x-x-x-x-x-x-x-x-x-x-x-x-x--------x4---------------------------|
--0--0--17171717171717171717171717171717-------------------------------------|
 PM--

------------------------------------------------------------------------------|
------------------------------------------------------------------------------|
------------------------------------------------------------------------------|
--------3333333333333333333------333333333333333333---------------------------|
--------xxxxxxxxxxxxxxxxxxx------xxxxxxxxxxxxxxxxxx---------------------------|
--0--0--1111111111111111111-0-0--111111111111111111---0--0--------------------|
 PM--                      PM--                     PM------------------------|

---------------------------------------------------|--------------------------|
---------------------------------------------------|----------------------22--|
---------------------------------------------------|----------------------22--|
-22222222222222222--------22222222222222222--------|--------------------------|
-xxxxxxxxxxxxxxxxx--------xxxxxxxxxxxxxxxxx----x4--|--------------------------|
-00000000000000000--0--0--00000000000000000--------|--0--0-0-0--0--6b---------|
                  PM----                            PM------------------------| A.H

-----------------------------------------------------------------------------|
-----------------------------------------------------------------------------|
-----------------------------------------------------------------------------|
--8-----8-----8-------8--7--7--5--7----7--5-5----5-3-3----3--2-2-------------|
--x-----x-----x-------x--x--x--x--x----x--x-x----x-x-x----x--x-x-------------|
--6-----6-----6--0-0--6--5--5--3--5----5--3-3----3-1-1----1--0-0---0-0-------|
                                                                 PM---

-----------------------------------------------------------------------------|
-----------------------------------------------------------------------------|
-----------------------------------------------------------------------------|
-----------------------------------------8-----8-----8-------8--7--7--5--7---|
-----------------------------------------x-----x-----x-------x--x--x--x------|
-0h1p0--0--0--0-0-0h1p0---0-0-0-0-0-0----6-----6-----6--0-0--6--5--5--3------|
       PM   PM---

------------------------------------------------------------------------------|
------------------------------------------------------------------------------|
------------------------------------------------------------------------------|
--7--5--5---------------------------------------------------------------------|
--x--x--x---------------------------------------------------------------------|
--5--3--3--0-0-0-0-0-0-0-1-1----0-0-6b----6--5-5--6--5--0-0-0-0-0-0-----------|
         PM-----------        PM---A.H                PM----------------------|

------------------------------------------------------------------------------|
------------------------------------------------------------------------------|
------------------------------------------------------------------------------|
--8-----8-----8-------8--7--7--5--7-----7--5--5-------------------------------|
--x-----x-----x-------x--x--x--x--------x--x--x-------------------------------|
--6-----6-----6--0-0--6--5--5--3--------5--3--3--0-0-0-0-0-0-0-1-1---0-0--6b--|
               PM---                           PM-----------       PM---------|  A.H
                        (With Wa)
-----------------------|-----------------------------------------------------|
-----------------------|-----------------------------------------------------|
-----------------------|-----------------------------------------------------|
----------------8-10---|--------19191919191919191919191919191919-------------|
----------------x--x---|---------x-x-x-x-x-x-x-x-x-x-x-x-x-x-x-x----x2-------|
--6--5-5--6--5--6--8---|--0--0--17171717171717171717171717171717-------------|
                        PM----

------------------------------------------------------------------------------|
------------------------------------------------------------------------------|
------------------------------------------------------------------------------|
--------333333333333333--------333333333333333-------222222222222222----------|
--------xxxxxxxxxxxxxxx--------xxxxxxxxxxxxxxx-------xxxxxxxxxxxxxxx----------|
--0--0--111111111111111--0--0--111111111111111--0-0--000000000000000--0--0----|
 PM--                   -----                   ---                   --------|

-------------------------|---------------------------------------------------|
-------------------------|---------------------------------------------------|
-------------------------|---------------------------------------------------|
-222222222222222---------|---------------------------------------------------|
-xxxxxxxxxxxxxxx-----x4--|---------------------------------------------------|
-000000000000000---------|------0--0--0--------------------------------------|
                              PM-  -  -

------------------------------------------------------------------------------|
------------------------------------------------------------------------------|
------------------------------------------------------------------------------|
---------22222222222222--------22222222222222---------------------------------|
---------xxxxxxxxxxxxxx--------xxxxxxxxxxxxxx---------------------------------|
---0--0--00000000000000--0--0--00000000000000---------------------------------|
 PM----                  -----------------------------------------------------|
Добавлено: 15.07.2012
Другие материалы по этой песне:

Страница создана 07.03.2012
http://primanota.ru/gojira/where-dragons-dwell-chords.htm
Привет, Гость.
Предлагаем пройти революционный курс по гитаре.
Подарок от PrimaNota.Ru, забирай!