PrimaNota.ru - самый крупный в мире бесплатный архив песенных текстов, аккордов, табулатур и нот


Gojira - Wolf Down The Earth - текст песни, таба, видео

Регистрация Запомнить меня
Войти через:  Facebook Google Twitter Vk Yandex Mail.ru

Gojira - Wolf Down The Earth - текст песни, таба, видео

Печатать
Просмотров: 171
Авторы музыки: Mario Duplantier, Joe Duplantier
Авторы текста: Joe Duplantier
Artist: Gojira
Song: Wolf Down The Earth
Album: The Way of All Flesh (2008)

Tabbed By: Jared Lucas
Contact: jar_99@hotmail.com

Info:
If you have any questions about this tab you can reach me at me email listed above.
I have tabbed the first half of this song so far, if you would like to add to it be my guest.
This is my first tab i've done, rate it and tell me how i did please.
I will upload full song soon enough. But for now ENJOY!

Tuning: Drop D     D-A-D-G-B-E

Note:  ~ = Trem Picking (Tremolo Picking - Double picking
       P.M. = Palm Mute
       P.H. = Pinch Harmonic
       B = Bend
       p = Pull Off
       h = Hammer On

Into (0:00)
|-------------------------------------------------|E
|-------------------------------------------------|B
|-------------------------------------------------|G
|-------------------------------------------------|D
|-------3~2~--2~----------3~5~7~8~7~--------------|A
|-0~3~2~----7~------0~3~2~------------------------|D

|--------------------------------------------X--|  (classic Gojira pick scrape on all
|--------------------------------------------X--|           6 strings)
|--------------------------------------------X--|
|--------------------------------------------X--|  Guitar I only
|-------3~2~--2~----------3P.H.-0-0-0-0-0-0--X--|
|-0~3~2~----7~------0~3~2~------0-0-0-0-0-0--X--|
                               P.M.-------------|
Whole band comes in (0:15)
|-----------------------------------------------|
|-----------------------------------------------|
|-----------------------------------------------|
|-----------------------------------------------|  Guitars I & II
|-------3~2~--2~----------3~5~7~8~7~------------|
|-0~3~2~----7~------0~3~2~----------------------|

|--------------------------------------------X----|
|--------------------------------------------X----|
|--------------------------------------------X----|
|--------------------------------------------X----|  Guitars I & II
|-------3~2~--2~----------3P.H.-0-0-0-0-0-0--X----|
|-0~3~2~----7~------0~3~2~------0-0-0-0-0-0--X----|
                               P.M.---------------|

|-----------------------------------------------|
|-----------------------------------------------|
|-----------------------------------------------|
|-----------------------------------------------|  Gutiar I & II
|-------3~2~--2~----------3~5~7~8~7~------------|
|-0~3~2~----7~------0~3~2~----------------------|

|-------------------------------------------------|
|--------------------------------------------0----|
|--------------------------------------------0----|
|--------------------------------------------0----|  Guitar I
|-------3~2~--2~----------3P.H.-0-0-0-0-0-0-------|
|-0~3~2~----7~------0~3~2~------0-0-0-0-0-0-------|
                               P.M.---------------|

|-------------------------------------------------|
|--------------------------------------------0----|
|--------------------------------------------0----|
|--------------------------------------------0----|  Guitar II
|-8~7~5~7~5~3~5~--------3P.H.---0-0-0-0-0-0-------|
|-----------------0~3~2~--------0-0-0-0-0-0-------|
                               P.M.---------------|

|-----------------------------------------------|
|-----------------------------------------------|
|-----------------------------------------------|
|-----------------------------------------------|  Guitars I & II
|-0-------3~2~--2~----------3~5~7~8~7~----------|
|-0-0~3~2~----7~------0~3~2~--------------------|
 P.M.

|-------------------------------------------------|
|--------------------------------------------0----|
|--------------------------------------------0----|
|--------------------------------------------0----|  Guitar I
|---------3~2~--2~--------3P.H.-0-0-0-0-0-0-------|
|---0~3~2~----7~----0~3~2~------0-0-0-0-0-0-------|
                               P.M.---------------|

|-------------------------------------------------|
|------------------------------------------0------|
|------------------------------------------0------|
|------------------------------------------0------|
|-8~7~5~7~5~3~5~--------3P.H.-0-0-0-0-0-0---------|  Guitar II
|-----------------0~3~2~------0-0-0-0-0-0---------|
                             P.M.-----------------|
(1:02)
|-----------------------------------------------|
|-----------------------------------------------|
|-----------------------------------------------|
|-----------------------------------------------|  Guitars I & II
|-0------0----0---------------------------------|
|-0-3~2~-0-3~-0-2~------------------------------| 7X
 P.M.   P.M. P.M.

(1:25)
|-----------------------------------------------|
|-----------------------------------------------|
|-----------------------------------------------|
|-----------------------------------------------|  Guitars I & II
|-0-------3~2~--2~----------3~5~7~8~7~----------|
|-0-0~3~2~----7~------0~3~2~--------------------|
 P.M.

|-------------------------------------------------|
|--------------------------------------------0----|
|--------------------------------------------0----|
|--------------------------------------------0----|  Guitar I
|---------3~2~--2~--------3P.H.-0-0-0-0-0-0-------|
|---0~3~2~----7~----0~3~2~------0-0-0-0-0-0-------|
                               P.M.---------------|

|-------------------------------------------------|
|------------------------------------------0------|
|------------------------------------------0------|
|------------------------------------------0------|
|-8~7~5~7~5~3~5~--------3P.H.-0-0-0-0-0-0---------|  Guitar II
|-----------------0~3~2~------0-0-0-0-0-0---------|
                             P.M.-----------------|
(1:41)
|-----------------------------------------------|
|-----------------------------------------------|
|-----------------------------------------------|
|-----------------------------------------------|  Guitars I & II
|-0------0----0---------------------------------|
|-0-3~2~-0-3~-0-2~------------------------------|  4X
 P.M.   P.M. P.M.
(1:57)
|-----------------------------------------------|
|-0-----0---0-----------------------------------|
|-0-----0---0-----------------------------------|
|-0-----0---0-----------------------------------|  Guitars I & II
|-----------------------------------------------|
|---3-2---3---2-2h3p2---------------------------|  4X
          B

|-----------------------------------------------|
|-0-----0---0-----------------------------------|
|-0-----0---0-----------------------------------|
|-0-----0---0-----------------------------------|  Guitar I
|-----------------------------------------------|
|---3-2---3---2-2h3p2---------------------------|
          B


Again any questions  E-mail me at, jar_99@hotmail.com

Also please add on!!

Please Rate
Добавлено: 16.05.2012
Другие материалы по этой песне:

Страница создана 13.04.2012
http://primanota.ru/gojira/wolf-down-the-earth-chords.htm
Привет, Гость.
Предлагаем пройти революционный курс по гитаре.
Подарок от PrimaNota.Ru, забирай!