PrimaNota.ru - самый крупный в мире бесплатный архив песенных текстов, аккордов, табулатур и нот


Gojira - World To Come - текст песни, таба, видео

Регистрация Запомнить меня
Войти через:  Facebook Google Twitter Vk Yandex Mail.ru

Gojira - World To Come - текст песни, таба, видео

Печатать
Просмотров: 120
Author/Artist: Gojira
Title: World To Come
Album: From Mars To Sirius
Transcribed by: metallica44
DGCFAD



Guitar I
------------7-----------7-----------7-----------7-----------7-----------7----
----7----9-----7-----9-----7-----9-----7-----9-----7-----9-----7-----9-----7-
------8-----------8-----------8-----------8-----------8-----------8----------
-----------------------------------------------------------------------------
-----------------------------------------------------------------------------
-----------------------------------------------------------------------------

Guitar II (Joe)
-----------------------------------------------------------------------------
-----------------------------------------------------------------------------
------------------6--6---6---6b8r6---------------------4-4-4b6r4-4b6r4-------
-----6---6-6--------------------------3---3-3-3-2----------------------------
-----------------------------------------------------------------------------
---4---4-------4-------4---4--------1---1------------0-----------------------


-----------------------------------------------------------------------------
-----------------------------------------------------------------------------
-------------------6--6---6---6b8r6---------------------4-4-4-4-4-4-4-4------
------6---6-6-------------------------3---3-3-3-2----------------------------
-----------------------------------------------------------------------------
---4----4------4--------4---4-------1---1-------------0----------------------


-----------------------------------------------------------------------------
-----------------------------------------------------------------------------
------------------6--6---6---6b8r6---------------------4-4-4b6r4-4b6r4-------
-----6---6-6--------------------------3---3-3-3-2----------------------------
-----------------------------------------------------------------------------
---4---4-------4-------4---4--------1---1------------0-----------------------


-----------------------------------------------------------------------------
-----------------------------------------------------------------------------
-------------------6--6---6---6b8r6---------------------4-4-4-4-4-4-4-4--3-1-
------6---6-6-------------------------3---3-3-3-2----------------------------
-----------------------------------------------------------------------------
---4----4------4--------4---4-------1---1-------------0----------------------


-----------------------------------------------------------------------------
-----------------------------------------------------------------------------
-----------------------------------------------------------------------------
------1--3--4--6--8--4--4-----1--4--3--3--1-----1--1-------------------------
---------------------------------------------4-------------------------------
-----------------------------------------------------------------------------


-----------------------------------------------------------------------------
-----------------------------------------------------------------------------
-------------------6--6---6---6b8r6-------------------4-4-4b6r4-4b6r4--------
-------6---6--6------------------------3---3-3-3-2---------------------------
-----------------------------------------------------------------------------
----4----4------4-------4---4--------1---1----------0------------------------


-----------------------------------------------------------------------------
-----------------------------------------------------------------------------
-------------------6--6---6---6b8r6---------------------4-4-4-4-4-4-4-4--3-1-
------6---6-6-------------------------3---3-3-3-2----------------------------
-----------------------------------------------------------------------------
---4----4------4--------4---4-------1---1-------------0----------------------


-----------------------------------------------------------------------------
-----------------------------------------------------------------------------
----------------------------------------------------------------------------
-1--3--4--6--8--6--4b6r4b6r4---------1--4--3---3--1-----1--1-----------------
---------------------------------------------4-------------------------------
----------------------------------------------------------------------------|

-----------------------------------------------------------------------------
-----------------------------------------------------------------------------
--------------------6--6---6---6b8r6-------------------4-4-4-4-4-4-4-4-------
--------6---6--6------------------------3---3-3-3-2--------------------------
-----------------------------------------------------------------------------
----4-----4-------4------4---4-------1----1----------0-----------------------


-----------------------------------------------------------------------------
-----------------------------------------------------------------------------
-----------------------------------------------------------------------------
-----------------------------------------------------------------------------
--14-14-14-14-14-14-14-14-14-14-14-14-14-14-14-------------------------------
-----------------------------------------------------------------------------

-----------------------------------------------------------------------------
-----------------------------------------------------------------------------
-----------------------------------------------------------------------------
--------9--8--9-11--8-----9--8--9--8--6--8----9------------------------------
--------x--x--x--x--x-----x--x--x--x--x--x----x------------------------------
--------7--6--7--9--6-----7--6--7--6--4--6----7------------------------------
Добавлено: 28.03.2012
Другие материалы по этой песне:

Страница создана 28.03.2012
http://primanota.ru/gojira/world-to-come-chords.htm
Привет, Гость.
Предлагаем пройти революционный курс по гитаре.
Подарок от PrimaNota.Ru, забирай!