PrimaNota.ru - самый крупный в мире бесплатный архив песенных текстов, аккордов, табулатур и нот


Gojira - Silvera - таба, видео

Регистрация Запомнить меня
Войти через:  Facebook Google Twitter Vk Yandex Mail.ru

Gojira - Silvera - таба, видео

Печатать
Просмотров: 53
Уроки эстрадного вокала в Санкт-Петербурге
Авторы музыки: Gojira
Авторы текста: Gojira
|--------------------------------------------------------------------------------------------------------|
|                                            GOJIRA - SILVERA                                            |
|                                           Album: Magma (2016)                                          |
|                                            Tab by Godspeedy                                            |
|--------------------------------------------------------------------------------------------------------|

                   If you have questions or corrections feel free to send me a message:
                                    https://www.facebook.com/Godspeedy14
                     
                 Also check out my Youtube channel: http://www.youtube.com/user/Godspeedy14

                        *************************************************************
                        * NOTE: If you need a playthrough, check out my cover here: *
                        *       https://www.youtube.com/watch?v=aYSWmVsVun0         *
                        *************************************************************

                                        Tuning: 6 strings DGCFAD 
                                                    
*********************************************GUITAR NOTATIONS*********************************************
*                                                                                                        *
*                                      | *   palm mute           |                                       *
*                                      | s   slide               |                                       *
*                                      | s\  slide downwards     |                                       *
*                                      | /s  slide in from below |                                       *
*                                      | T   tapping             |                                       *
*                                      | p   pull-off            |                                       *
*                                      | ~   vibrato             |                                       *
*                                      | x   muted note          |                                       *
*                                      | ..  let ring            |                                       *
*                                      | ''  natural harmonics   |                                       *
*                                                                                                        *
**********************************************************************************************************

|--------------------------------------------------------------------------------------------------------|
|                                          INTRO (00:00-00:36)                                           |
|--------------------------------------------------------------------------------------------------------|

Guitars 1 and 2 (w/ dist)
                                                                                           ......
D|-------------------------|-------------------------|-------------------------|--------------------|
A|-------------------------|-------------------------|-------------------------|--------------------|
F|-------------------------|-------------------------|-------------------------|--------------------| x2
C|-3--2--------------------|-3---2-------------------|-3--2--------------------|-3---2--------------|
G|-3--2--------------------|-3---2-------------------|-3--2--------------------|-3---2--------5-----|
D|-1--0----3-2-1-0-3-2-1-0-|-1---0---3-2-1-0-3-2-1-0-|-1--0----3-2-1-0-3-2-1-0-|-1---0---/s6-----6s\|
           * * * * * * * *           * * * * * * * *           * * * * * * * *             

        T           T      T     T      T      T      T      T      T     T      T      T
D|-----------|--------------------------------------|--------------------------------------|
A|-----------|--------------------------------------|--------------------------------------|
F|-----------|--------------------------------------|--------------------------------------| x4
C|------9~~~~|~~p2--7--p2--9-p2--10-p2--9--p2--10p2-|-12-p2--10-p2--9-p2--10-p2--9--p2--6--|
G|-2---------|--------------------------------------|--------------------------------------|
D|-0---------|--------------------------------------|--------------------------------------|

|--------------------------------------------------------------------------------------------------------|
|                                          VERSE (00:36-01:03)                                           |
|--------------------------------------------------------------------------------------------------------|

Guitars 1 and 2 (w/ dist)
                                                                                           ......
D|-------------------------|-------------------------|-------------------------|--------------------|
A|-------------------------|-------------------------|-------------------------|--------------------|
F|-------------------------|-------------------------|-------------------------|--------------------| x2
C|-3--2--------------------|-3---2-------------------|-3--2--------------------|-3---2--------------|
G|-3--2--------------------|-3---2-------------------|-3--2--------------------|-3---2--------5-----|
D|-1--0----3-2-1-0-3-2-1-0-|-1---0---3-2-1-0-3-2-1-0-|-1--0----3-2-1-0-3-2-1-0-|-1---0---/s6-----6s\|
           * * * * * * * *           * * * * * * * *           * * * * * * * *             
          
|--------------------------------------------------------------------------------------------------------|
|                                        PRE-CHORUS (00:49-01:03)                                        |
|--------------------------------------------------------------------------------------------------------|

Guitars 1 and 2 (w/ dist)

D|----------------------|-------------------------------|
A|----------------------|-------------------------------|
F|----------------------|-------------------------------| x3
C|-3---2----------------|-------------------------------|
G|-3---2----------------|-------------------------------|
D|-1---0---0-0-0-0-0-0--|-0-0-0-0-0-0---0-0-0-0-0-0-0-0-|
           * * * * *      * * * * *     * * * * * * * *
D|----------------------|-----------------------------|
A|----------------------|-----------------------------|
F|----------------------|-----------------------------|
C|-3---2----------------|-----------------------------|
G|-3---2---2-2-2--2-2-2-|-2-2-2--2-2-2--2-2-2--2-2-2--|
D|-1---0---0-0-0--0-0-0-|-0-0-0--0-0-0--0-0-0--0-0-0--|
           * * *  * * *   * * *  * * *  * * *  * * * 

Guitar 3 and 4 (w/ dist)

   ^   ^ (brush downstroke)
D|----------------------|-------------------------------|
A|-6---5----------------|-------------------------------|
F|-5---4----------------|-------------------------------| x3
C|-3---2----------------|-------------------------------|
G|-3---2----------------|-------------------------------|
D|---------0-0-0-0-0-0--|-0-0-0-0-0-0---0-0-0-0-0-0-0-0-|
           * * * * *      * * * * *     * * * * * * * *

   ^   ^
D|----------------------|-----------------------------|
A|-6---5----------------|-----------------------------|
F|-5---4----------------|-----------------------------|
C|-3---2----------------|-----------------------------|
G|-3---2---2-2-2--2-2-2-|-2-2-2--2-2-2--2-2-2--2-2-2--|
D|---------0-0-0--0-0-0-|-0-0-0--0-0-0--0-0-0--0-0-0--|
           * * *  * * *   * * *  * * *  * * *  * * * 

|--------------------------------------------------------------------------------------------------------|
|                                          CHORUS (01:03-01:36)                                          |
|--------------------------------------------------------------------------------------------------------|

Guitars 1 and 2 (w/ dist)

        T           T      T     T      T      T      T      T      T     T      T      T
D|-----------|--------------------------------------|--------------------------------------|
A|-----------|--------------------------------------|--------------------------------------|
F|-----------|--------------------------------------|--------------------------------------| x4
C|------9~~~~|~~p2--7--p2--9-p2--10-p2--9--p2--10p2-|-12-p2--10-p2--9-p2--10-p2--9--p2--6--|
G|-2---------|--------------------------------------|--------------------------------------|
D|-0---------|--------------------------------------|--------------------------------------|

   T       T       T       T       T       T       T       T       T       T       T       T
D|-----------------------------------------------|-----------------------------------------------|
A|-----------------------------------------------|-----------------------------------------------|
F|-----------------------------------------------|-----------------------------------------------|
C|-12-p7---12-p7---12-p7---12-p7---12-p7---12-p7-|-10-p7---10-p7---10-p7---10-p7---10-p7---10-p7-|
G|-----------------------------------------------|-----------------------------------------------|
D|-----------------------------------------------|-----------------------------------------------|

                                                                                           ......
D|-------------------------|-------------------------|-------------------------|--------------------|
A|-------------------------|-------------------------|-------------------------|--------------------|
F|-------------------------|-------------------------|-------------------------|--------------------|
C|-3--2--------------------|-3---2-------------------|-3--2--------------------|-3---2--------------|
G|-3--2--------------------|-3---2-------------------|-3--2--------------------|-3---2--------5-----|
D|-1--0----3-2-1-0-3-2-1-0-|-1---0---3-2-1-0-3-2-1-0-|-1--0----3-2-1-0-3-2-1-0-|-1---0---/s6-----6s\|
           * * * * * * * *           * * * * * * * *           * * * * * * * *             

|--------------------------------------------------------------------------------------------------------|
|                                       PRE-CHORUS 2 (01:36-01:50)                                       |
|--------------------------------------------------------------------------------------------------------|
                                           same as PRE-CHORUS
|--------------------------------------------------------------------------------------------------------|
|                                          BRIDGE (01:50-02:47)                                          |
|--------------------------------------------------------------------------------------------------------|

I. Guitars 1 and 2 (w/ dist)

D|------------------------|------------------------|------------------------|
A|------------------------|------------------------|------------------------|
F|------------------------|------------------------|------------------------|
C|-x--x--x--x--x--x--x--x-|-x--x--x--x--x--x--x--x-|-x--x--x--x--x--x--x--x-|
G|-x--x--x--x--x--x--x--x-|-x--x--x--x--x--x--x--x-|-x--x--x--x--x--x--x--x-|
D|-x--x--x--x--x--x--x--x-|-x--x--x--x--x--x--x--x-|-x--x--x--x--x--x--x--x-|

D|-----------------------------------|
A|-----------------------------------|
F|-----------------------------------| x4
C|-0---0-----------------------------|
G|-0---0-----------------------------|
D|-1---1---/s10-10-10-10-8--7--6--5--|
   *   *     *  *  *  *  *  *  *  *

D|-0-----|-------------------------------------------------|
A|-0-----|-------------------------------------------------|
F|-0-----|-------------------------------------------------|
C|-0-----|-------------------------------------------------|
G|-2-----|-------------------------------------------------|
D|-0-----|'4''4''4''4''3''3''3''3''3''3''3''3''2''2''2''2'-|

II.  Guitars 1 and 2 (w/ dist)

D|-----------------------------------------|-------------------------------------------------|
A|-----------------------------------------|-------------------------------------------------|
F|-----------------------------------------|-------------------------------------------------| x3
C|-----------------------------------------|-------------------------------------------------|
G|-----------------------------------------|-------------------------------------------------|
D|-8-8-8-8-8-8-8-8-11-11-11-11-11-11-11-11-|-10-10-10-10-10-10-10-10-10-10-10-10-10-10-10-10-|
   * * * * * * * * *  *  *  *  *  *  *  *    *  *  *  *  *  *  *  *  *  *  *  *  *  *  *  *
D|-------------------------------------------------|-------------------------------------------------|
A|-------------------------------------------------|-------------------------------------------------|
F|-------------------------------------------------|-------------------------------------------------|
C|-------------------------------------------------|-------------------------------------------------|
G|-------------------------------------------------|-------------------------------------------------|
D|-10-10-10-10-10-10-10-10-10-10-10-10-10-10-10-10-|-10-10-10-10-10-10-10-10-10-10-10-10-10-10-10-10-|

D|---------------------------------|---------------------------------|
A|---------------------------------|---------------------------------|
F|---------------------------------|---------------------------------|
C|---------------------------------|---------------------------------|
G|---------------------------------|---------------------------------|
D|-3-3-3-3-3-3-3-3-3-3-3-3-3-3-3-3-|-1-1-1-1-1-1-1-1-1-1-1-1-1-1-1-1-|
   * * * * * * * * * * * * * * * *   * * * * * * * * * * * * * * * *
D|---------------------------------|---------------------------------|
A|---------------------------------|---------------------------------|
F|---------------------------------|---------------------------------|
C|---------------------------------|---------------------------------|
G|---------------------------------|---------------------------------|
D|-3-3-3-3-3-3-3-3-3-3-3-3-5-5-5-5-|-1-1-1-1-1-1-1-1-1-1-1-1-1-1-1-1-|
   * * * * * * * * * * * * * * * *   * * * * * * * * * * * * * * * *
D|---------------------------------|---------------------------------|
A|---------------------------------|---------------------------------|
F|---------------------------------|---------------------------------|
C|---------------------------------|---------------------------------|
G|---------------------------------|---------------------------------|
D|-3-3-3-3-3-3-3-3-3-3-3-3-3-3-3-3-|-1-1-1-1-1-1-1-1-1-1-1-1-1-1-1-1-|
   * * * * * * * * * * * * * * * *   * * * * * * * * * * * * * * * *
D|-------------------------------------------------|-------------------------------------------------|
A|-------------------------------------------------|-------------------------------------------------|
F|-------------------------------------------------|-------------------------------------------------|
C|-------------------------------------------------|-------------------------------------------------|
G|-------------------------------------------------|-------------------------------------------------|
D|-10-10-10-10-10-10-10-10-10-10-10-10-10-10-10-10-|-10-10-10-10-10-10-10-10-10-10-10-10-10-10-10-10-|

D|-----------------------------------------|-------------------------------------------------|
A|-----------------------------------------|-------------------------------------------------|
F|-----------------------------------------|-------------------------------------------------| x3
C|-----------------------------------------|-------------------------------------------------|
G|-----------------------------------------|-------------------------------------------------|
D|-8-8-8-8-8-8-8-8-11-11-11-11-11-11-11-11-|-10-10-10-10-10-10-10-10-10-10-10-10-10-10-10-10-|
   * * * * * * * * *  *  *  *  *  *  *  *    *  *  *  *  *  *  *  *  *  *  *  *  *  *  *  *
D|-------------------------------------------------|-------------------------------------------------|
A|-------------------------------------------------|-------------------------------------------------|
F|-------------------------------------------------|-------------------------------------------------|
C|-------------------------------------------------|-------------------------------------------------|
G|-------------------------------------------------|-------------------------------------------------|
D|-10-10-10-10-10-10-10-10-10-10-10-10-10-10-10-10-|-10-10-10-10-10-10-10-10-10-10-10-10-10-10-10-10-|


    Guitars 3 and 4 (w/ dist)

   T     T     T     T     T     T     T     T       T     T     T     T     T     T     T     T   ----|
D|-------------------------------------------------|-------------------------------------------------| |
A|-------------------------------------------------|-------------------------------------------------| |
F|-15p12-15p12-15p12-15p12-14p12-14p12-14p12-14p12-|-14p10-14p10-14p10-14p10-14p10-14p10-14p10-14p10-| |
C|-------------------------------------------------|-------------------------------------------------| |
G|-------------------------------------------------|-------------------------------------------------| |
D|-------------------------------------------------|-------------------------------------------------| |
                                                                                                       |
   T     T     T     T     T     T     T     T       T     T     T     T     T     T     T     T       |
D|-------------------------------------------------|-------------------------------------------------| |
A|-------------------------------------------------|-------------------------------------------------| |
F|-15p12-15p12-14p12-14p12-15p12-15p12-15p12-14p12-|-14p10-14p10-14p10-14p10-14p10-14p10-14p10-14p10-| |
C|-------------------------------------------------|-------------------------------------------------| |
G|-------------------------------------------------|-------------------------------------------------| |
D|-------------------------------------------------|-------------------------------------------------| |
                                                                                                       | x2
   T     T     T     T     T     T     T     T       T     T     T     T     T     T     T     T       |
D|-------------------------------------------------|-------------------------------------------------| |
A|-------------------------------------------------|-------------------------------------------------| |
F|-15p12-15p12-15p12-15p12-14p12-14p12-14p12-14p12-|-14p10-14p10-14p10-14p10-14p10-14p10-14p10-14p10-| |
C|-------------------------------------------------|-------------------------------------------------| |
G|-------------------------------------------------|-------------------------------------------------| |
D|-------------------------------------------------|-------------------------------------------------| |
                                                                                                       |
   T     T     T     T     T     T     T     T       T     T     T     T     T     T     T     T       |
D|-------------------------------------------------|-------------------------------------------------| |
A|-------------------------------------------------|-------------------------------------------------| |
F|-14p7--14p7--14p7--14p7--14p7--14p7--14p7--14p7--|-14p7--14p7--14p7--14p7--14p7--14p7--14p7--14p7--| |
C|-------------------------------------------------|-------------------------------------------------| |
G|-------------------------------------------------|-------------------------------------------------| |
D|-------------------------------------------------|-------------------------------------------------| |
                                                                                                   ----|

*use pick to tap the notes faster

   T     T     T     T     T     T     T     T     T     T     T     T     T     T     T     T
D|-18p15p18p15p18p15p18p15p18p15p18p15p18p15p18p15p17p15p17p15p17p15p17p15p17p15p17p15p17p15p17p15-|
A|-------------------------------------------------------------------------------------------------|
F|-------------------------------------------------------------------------------------------------|
C|-------------------------------------------------------------------------------------------------|
G|-------------------------------------------------------------------------------------------------|
D|-------------------------------------------------------------------------------------------------|

   T     T     T     T     T     T     T     T     T     T     T     T     T     T     T     T
D|-17p13p17p13p17p13p17p13p17p13p17p13p17p13p17p13p17p13p17p13p17p13p17p13p17p13p17p13p17p13p17p13-|
A|-------------------------------------------------------------------------------------------------|
F|-------------------------------------------------------------------------------------------------|
C|-------------------------------------------------------------------------------------------------|
G|-------------------------------------------------------------------------------------------------|
D|-------------------------------------------------------------------------------------------------|

   T     T     T     T     T     T     T     T     T     T     T     T     T     T     T     T
D|-18p15p18p15p18p15p18p15p18p15p18p15p18p15p18p15p20p15p20p15p20p15p20p15p20p15p20p15p20p15p20p15-|
A|-------------------------------------------------------------------------------------------------|
F|-------------------------------------------------------------------------------------------------|
C|-------------------------------------------------------------------------------------------------|
G|-------------------------------------------------------------------------------------------------|
D|-------------------------------------------------------------------------------------------------|

   T     T     T     T     T     T     T     T     T     T     T     T     T     T     T     T
D|-17p13p17p13p17p13p17p13p17p13p17p13p17p13p17p13p17p13p17p13p17p13p17p13p17p13p17p13p17p13p17p13-|
A|-------------------------------------------------------------------------------------------------|
F|-------------------------------------------------------------------------------------------------|
C|-------------------------------------------------------------------------------------------------|
G|-------------------------------------------------------------------------------------------------|
D|-------------------------------------------------------------------------------------------------|

   T     T     T     T     T     T     T     T     T     T     T     T     T     T     T     T
D|-18p15p18p15p18p15p18p15p18p15p18p15p18p15p18p15p17p15p17p15p17p15p17p15p17p15p17p15p17p15p17p15-|
A|-------------------------------------------------------------------------------------------------|
F|-------------------------------------------------------------------------------------------------|
C|-------------------------------------------------------------------------------------------------|
G|-------------------------------------------------------------------------------------------------|
D|-------------------------------------------------------------------------------------------------|

   T     T     T     T     T     T     T     T     T     T     T     T     T     T     T     T
D|-17p13p17p13p17p13p17p13p17p13p17p13p17p13p17p13p17p13p17p13p17p13p17p13p17p13p17p13p17p13p17p13-|
A|-------------------------------------------------------------------------------------------------|
F|-------------------------------------------------------------------------------------------------|
C|-------------------------------------------------------------------------------------------------|
G|-------------------------------------------------------------------------------------------------|
D|-------------------------------------------------------------------------------------------------|

   T     T     T     T     T     T     T     T     T     T     T     T     T     T     T     T
D|-17p10p17p10p17p10p17p10p17p10p17p10p17p10p17p10p17p10p17p10p17p10p17p10p17p10p17p10p17p10p17p10-|
A|-------------------------------------------------------------------------------------------------|
F|-------------------------------------------------------------------------------------------------|
C|-------------------------------------------------------------------------------------------------|
G|-------------------------------------------------------------------------------------------------|
D|-------------------------------------------------------------------------------------------------|

   T     T     T     T     T     T     T     T     T     T     T     T     T     T     T     T
D|-17p10p17p10p17p10p17p10p17p10p17p10p17p10p17p10p17p10p17p10p17p10p17p10p17p10p17p10p17p10p17p10-|
A|-------------------------------------------------------------------------------------------------|
F|-------------------------------------------------------------------------------------------------|
C|-------------------------------------------------------------------------------------------------|
G|-------------------------------------------------------------------------------------------------|
D|-------------------------------------------------------------------------------------------------|

|--------------------------------------------------------------------------------------------------------|
|                                         CHORUS 2 (02:47-03:19)                                         |
|--------------------------------------------------------------------------------------------------------|
                                             same as CHORUS
|--------------------------------------------------------------------------------------------------------|
|                                          OUTRO (03:19-03:32)                                           |
|--------------------------------------------------------------------------------------------------------|

Guitars 1 and 2 (w/ dist)

D|-------------------------|-------------------------|-------------------------|
A|-------------------------|-------------------------|-------------------------|
F|-------------------------|-------------------------|-------------------------|
C|-3--2--------------------|-3---2-------------------|-3--2--------------------|
G|-3--2--------------------|-3---2-------------------|-3--2--------------------|
D|-1--0----3-2-1-0-3-2-1-0-|-1---0---3-2-1-0-3-2-1-0-|-1--0----3-2-1-0-3-2-1-0-|
           * * * * * * * *           * * * * * * * *           * * * * * * * *             

D|---------------------------------|----------------|
A|---------------------------------|----------------|
F|---------------------------------|----------------|
C|---------------------------------|-3--2-----------|
G|---------------------------------|-3--2-----------|
D|-3-2-1-0-5-4-3-0-4-3-2-0-3-2-1-0-|-1--0-----------|
   * * * * * * * * * * * * * * * *


Добавлено: 20.08.2017
Другие материалы по этой песне:
  • Аккорды и текст

Страница создана 20.08.2017
http://primanota.ru/gojira/silvera-chords.htm
Привет, Гость.
Предлагаем пройти революционный курс по гитаре.
Подарок от PrimaNota.Ru, забирай!