PrimaNota.ru - самый крупный в мире бесплатный архив песенных текстов, аккордов, табулатур и нот


Gojira - Oroborus - текст песни, таба, видео

Регистрация Запомнить меня
Войти через:  Facebook Google Twitter Vk Yandex Mail.ru

Gojira - Oroborus - текст песни, таба, видео

Печатать
Просмотров: 220
Авторы музыки: Mario Duplantier, Christian Andreu, Joe Duplantier
Авторы текста: Joe Duplantier
Author/Artist: Gojira
Title: Oroborus
Album: The Way Of All Flesh
Transcribed by: Jaymz88
One of the best song ever made...

  T    T    T    T    T   T    T   T   T    T   T   T    T   T   T   T   T
------------------------------------------------------------------------------|
------------------------------------------------------------------------------|
------------------------------------------------------------------------------|
------------------------------------------------------------------------------|
--10p7-10p7-----------9p5-9p5-------------------------------------------------|
-------------8p7-8p7-----------8p3-8p3-8p3--8p2-8p2-8p2--8p7-8p7-8p7-8p7-8p7--|


 T   T   T   T   T   T   T    T    T    T   T   T   T    T   T   T    T   T
------------------------------------------------------------------------------|
------------------------------------------------------------------------------|
------------------------------------------------------------------------------|
------------------------------------------------------------------------------|
------------------------------10p7-10p7---------9p5-9p5-----------------------|
-8p7-8p7-8p7-8p7-8p7-8p7-8p7------------8p7-8p7----------8p3-8p3-8p3--8p2-8p2-|


 T    T   T   T   T   T   T   T   T   T   T   T  T  T  T  T  T  T  T  T  T
------------------------------------------------------------------------------|
------------------------------------------------------------------------------|
------------------------------------------------------------------------------|
------------------------------------------------------------------------------|
------------------------------------------------------------------------------|
-8p2--8p7-8p7-8p7-8p7-8p7-8p7-8p7-8p7-8p7-8p7-8p7-8p7-8p7-8p7-8p7-8p7-8p7-8p7-|


  T    T     T   T   T   T    T   T   T    T   T   T    T   T   T   T   T
------------------------------------------------------------------------------|
------------------------------------------------------------------------------|
------------------------------------------------------------------------------|
------------------------------------------------------------------------------|
--10p7-10p7----------9p5-9p5--------------------------------------------------|
-------------8p7-8p7----------8p3-8p3-8p3--8p2-8p2-8p2--8p7-8p7-8p7-8p7-8p7---|


 T   T   T   T   T   T   T   T    T      T   T    T   T    T   T   T    T
------------------------------------------------------------------------------|
------------------------------------------------------------------------------|
------------------------------------------------------------------------------|
------------------------------------------------------------------------------|
------------------------------10p7-10p7-----------9p5-9p5---------------------|
-8p7-8p7-8p7-8p7-8p7-8p7-8p7-------------8p7-8p7-----------8p3-8p3-8p3--8p2---|


 T   T    T   T   T    T   T   T   T   T   T   T   T   T    T    T     T
------------------------------------------------------------------------------|
------------------------------------------------------------------------------|
------------------------------------------------------------------------------|
------------------------------------------------------------------------------|
------------------------------------------------------------10p7-10p7---------|
-8p2-8p2--8p7-8p7-8p7--8p5-8p5-8p5-8p5-8p5-8p5-8p5-8p5-8p5-------------8p7----|


 T   T   T   T   T   T    T   T   T   T   T   T   T   T   T   T   T   T
------------------------------------------------------------------------------|
------------------------------------------------------------------------------|
------------------------------------------------------------------------------|
------------------------------------------------------------------------------|
-----9p5-9p5------------------------------------------------------------------|
-8p7---------8p3-8p3-8p3--8p2-8p2-8p2-8p7-8p7-8p7-8p7-8p7-8p7-8p7-8p7-8p7-----|


 T   T   T   T    T    T   T   T   T   T   T   T    T   T   T    T   T   T
------------------------------------------------------------------------------|
------------------------------------------------------------------------------|
------------------------------------------------------------------------------|
------------------------------------------------------------------------------|
-------------10p7-10p7---------9p5-9p5----------------------------------------|
-8p7-8p7-8p7-----------8p7-8p7---------8p3-8p3-8p3--8p2-8p2-8p2--8p7-8p7-8p7--|


 T   T   T   T    T    T    T    T     T    T    T    T     T    T    T
------------------------------------------------------------------------------|
------------------------------------------------------------------------------|
------------------------------------------------------------------------------|
------------------------------------------------------------------------------|
------------------------------------------------------------------------------|
-8p7-8p7-8p7-8p7--10p7-10p7-10p7-10p7--12p7-12p7-12p7-12p7--14p7-14p7-14p7----|


 T    T     T    T    T   T    T   T    T   T   T    T   T   T    T   T
------------------------------------------------------------------------------|
------------------------------------------------------------------------------|
------------------------------------------------------------------------------|
------------------------------------------------------------------------------|
------------10p7-10p7----------9p5-9p5----------------------------------------|
-14p7-14p7------------8p7-8p7-----------8p3-8p3-8p3--8p2-8p2-8p2--8p7-8p7-----|


 T   T   T   T   T   T   T   T   T   T    T    T     T   T    T   T    T
------------------------------------------------------------------------------|
------------------------------------------------------------------------------|
------------------------------------------------------------------------------|
------------------------------------------------------------------------------|
------------------------------------------10p7-10p7-----------9p5-9p5---------|
-8p7-8p7-8p7-8p7-8p7-8p7-8p7-8p7-8p7-8p7-------------8p7-8p7-----------8p3----|


 T   T    T   T   T    T   T   T    T   T   T   T   T   T   T   T   T    T
------------------------------------------------------------------------------|
------------------------------------------------------------------------------|
------------------------------------------------------------------------------|
------------------------------------------------------------------------------|
------------------------------------------------------------------------------|
-8p3-8p3--8p2-8p2-8p2--8p7-8p7-8p7--8p5-8p5-8p5-8p5-8p5-8p5-8p5-8p5-8p5--8p3--|


 T   T    T   T   T   T   T   T    T   T   T    T   T   T   T
------------------------------------------------------------------|-----------|
------------------------------------------------------------------|-----------|
------------------------------------------------------------------|-----------|
------------------------------------------------------------------|-----------|
------------------------------------------------------------------|-----------|
-8p3-8p3--8p2-8p2-8p2-8p2-8p2-8p2--8p3-8p3-8p3--8p5-8p5-8p5-8p5---|-----------|


--------------------------------------------------------------0---------------|
--------------------------------------------------------------0---------------|
--------------------------------------------------------------0---------------|
--------------------------------------------------------------0---------------|
------------------------------------------------------------------------------|
-0-0-0-0-0-0-0-0-0-0-0-0-0-0-0-0-0-0-0-0-0-0-0-0-0-0-0-0-0-0------17/---------|
 - - - - - - - - - - - - - - - - - - - - - - - - - - - - - -

------------------------------------------------------------------------------|
------------------------------------------------------------------------------|
------------------------------------------------------------------------------|
------------------------------------------------------------------------------|
------------------------------------------------------------------------------|
-0-0-0-0-0-0-0-0-0-0-0-0-0-0-0-0-0-0-0-0-0-0-0-0-0-0-0-0-0-0--12/-------------|
 - - - - - - - - - - - - - - - - - - - - - - - - - - - - - -  -


--------------------------------------------------------------0---------------|
--------------------------------------------------------------0---------------|
--------------------------------------------------------------0---------------|
--------------------------------------------------------------0---------------|
------------------------------------------------------------------------------|
-0-0-0-0-0-0-0-0-0-0-0-0-0-0-0-0-0-0-0-0-0-0-0-0-0-0-0-0-0-0------17/---------|
 - - - - - - - - - - - - - - - - - - - - - - - - - - - - - -




------------------------------------------------------------------------------|
------------------------------------------------------------------------------|
------------------------------------------------------------------------------|
------------------------------------------------------------------------------|
------------------------------------------------------------------------------|
-0-0-0-0-0-0-0-0-0-0-0-0-0-0-0-0-0-0-0-0-0-0-0-0-0-1/2/3/4/5------------------|
 - - - - - - - - - - - - - - - - - - - - - - - - - - - - - -  - - - - - - -





--------------------------------------------------------------0---------------|
--------------------------------------------------------------0---------------|
--------------------------------------------------------------0---------------|
--------------------------------------------------------------0---------------|
------------------------------------------------------------------------------|
-0-0-0-0-0-0-0-0-0-0-0-0-0-0-0-0-0-0-0-0-0-0-0-0-0-0-0-0-0-0------17/---------|
 - - - - - - - - - - - - - - - - - - - - - - - - - - - - - -

------------------------------------------------------------------------------|
------------------------------------------------------------------------------|
------------------------------------------------------------------------------|
------------------------------------------------------------------------------|
------------------------------------------------------------------------------|
-0-0-0-0-0-0-0-0-0-0-0-0-0-0-0-0-0-0-0-0-0-0-0-0-0-0-0-0-0-0--12/-------------|
 - - - - - - - - - - - - - - - - - - - - - - - - - - - - - -  -


--------------------------------------------------------------0---------------|
--------------------------------------------------------------0---------------|
--------------------------------------------------------------0---------------|
--------------------------------------------------------------0---------------|
------------------------------------------------------------------------------|
-0-0-0-0-0-0-0-0-0-0-0-0-0-0-0-0-0-0-0-0-0-0-0-0-0-0-0-0-0-0------17/---------|
 - - - - - - - - - - - - - - - - - - - - - - - - - - - - - -




------------------------------------------------------------------------------|
------------------------------------------------------------------------------|
------------------------------------------------------------------------------|
------------------------------------------------------------------------------|
------------------------------------------------------------------------------|
-0-0-0-0-0-0-0-0-0-0-0-0-0-0-0-0-0-0-0-0-0-0-0-0-0-1/2/3/4/5------------------|
 - - - - - - - - - - - - - - - - - - - - - - - - - - - - - -  - - - - - - -




  T    T     T    T     T    T     T    T    T     T    T    T     T    T
------------------------------------------------------------------------------|
------------------------------------------------------------------------------|
--12p9-12p9-------------11p7-11p7---------------------------------------------|
-------------10p9-10p9-------------10p5-10p5-10p5--10p4-10p4-10p4--10p9-10p9--|
------------------------------------------------------------------------------|
------------------------------------------------------------------------------|



 T    T    T    T    T    T    T    T    T    T     T    T    T    T    T
------------------------------------------------------------------------------|
------------------------------------------------------------------------------|
----------------------------------------------------12p9-12p9-----------11p7--|
-10p9-10p9-10p9-10p9-10p9-10p9-10p9-10p9-10p9-10p9------------10p9-10p9-------|
------------------------------------------------------------------------------|
------------------------------------------------------------------------------|


 T     T    T    T     T    T    T     T    T    T    T    T    T    T
------------------------------------------------------------------------------|
------------------------------------------------------------------------------|
-11p7-------------------------------------------------------------------------|
-------10p5-10p5-10p5--10p4-10p4-10p4--10p9-10p9-10p9-10p9-10p9-10p9-10p9-----|
------------------------------------------------------------------------------|
------------------------------------------------------------------------------|


 T    T    T    T    T    T    T    T    T    T    T    T    T     T    T
------------------------------------------------------------------------------|
------------------------------------------------------------------------------|
-------------------------------------------------------------------12p9-12p9--|
-10p9-10p9-10p9-10p9-10p9-10p9-10p9-10p9-10p9-10p9-10p9-10p9-10p9-------------|
------------------------------------------------------------------------------|
------------------------------------------------------------------------------|


 T    T     T    T     T    T    T     T    T    T     T    T    T    T
------------------------------------------------------------------------------|
------------------------------------------------------------------------------|
------------11p7-11p7---------------------------------------------------------|
-10p9-10p9-------------10p5-10p5-10p5--10p4-10p4-10p4--10p9-10p9-10p9-10p9----|
------------------------------------------------------------------------------|
------------------------------------------------------------------------------|


 T    T     T    T    T   T     T    T     T    T     T    T     T     T
------------------------------------------------------------------------------|
------------------------------------------------------------------------------|
--------------------------------12p9-12p9-------------11p7-11p7---------------|
-10p9-10p9-10p9-10p9-10p9-10p9-------------10p9-10p9-------------10p5-10p5----|
------------------------------------------------------------------------------|
------------------------------------------------------------------------------|


 T     T    T    T     T    T    T     T    T    T    T    T    T    T
------------------------------------------------------------------------------|
------------------------------------------------------------------------------|
------------------------------------------------------------------------------|
-10p5--10p4-10p4-10p4--10p9-10p9-10p9--10p7-10p7-10p7-10p7-10p7-10p7-10p7-----|
------------------------------------------------------------------------------|
------------------------------------------------------------------------------|


 T    T     T    T    T    T    T    T    T     T    T    T     T    T
------------------------------------------------------------------------------|
------------------------------------------------------------------------------|
------------------------------------------------------------------------------|
-10p7-10p7--10p5-10p5-10p5-10p4-10p4-10p4-10p4--10p5-10p5-10p5--10p7-10p7-----|
------------------------------------------------------------------------------|
------------------------------------------------------------------------------|


 T    T
---------------|--------------------------------------------------------------|
---------------|--------------------------------------------------------------|
---------------|--------------------------------------------------------------|
-10p7-10p7-----|--------------------------------------------------------------|
---------------|--------------------------------------------------------------|
---------------|--------------------------------------------------------------|


--------------------------------------------------------------0---------------|
--------------------------------------------------------------0---------------|
--------------------------------------------------------------0---------------|
--------------------------------------------------------------0---------------|
------------------------------------------------------------------------------|
-0-0-0-0-0-0-0-0-0-0-0-0-0-0-0-0-0-0-0-0-0-0-0-0-0-0-0-0-0-0------17/---------|
 - - - - - - - - - - - - - - - - - - - - - - - - - - - - - -

------------------------------------------------------------------------------|
------------------------------------------------------------------------------|
------------------------------------------------------------------------------|
------------------------------------------------------------------------------|
------------------------------------------------------------------------------|
-0-0-0-0-0-0-0-0-0-0-0-0-0-0-0-0-0-0-0-0-0-0-0-0-0-0-0-0-0-0--12/-------------|
 - - - - - - - - - - - - - - - - - - - - - - - - - - - - - -  -


--------------------------------------------------------------0---------------|
--------------------------------------------------------------0---------------|
--------------------------------------------------------------0---------------|
--------------------------------------------------------------0---------------|
------------------------------------------------------------------------------|
-0-0-0-0-0-0-0-0-0-0-0-0-0-0-0-0-0-0-0-0-0-0-0-0-0-0-0-0-0-0------17/---------|
 - - - - - - - - - - - - - - - - - - - - - - - - - - - - - -


------------------------------------------------------------------------------|
------------------------------------------------------------------------------|
------------------------------------------------------------------------------|
------------------------------------------------------------------------------|
------------------------------------------------------------------------------|
-0-0-0-0-0-0-0-0-0-0-0-0-0-0-0-0-0-0-0-0-0-0-0-0-0-0-0-0-0-0-0-0-0-0----------|
 - - - - - - - - - - - - - - - - - - - - - - - - - - - - - - - - - -

--------------------------------------------------------------0---------------|
--------------------------------------------------------------0---------------|
--------------------------------------------------------------0---------------|
--------------------------------------------------------------0---------------|
------------------------------------------------------------------------------|
-0-0-0-0-0-0-0-0-0-0-0-0-0-0-0-0-0-0-0-0-0-0-0-0-0-0-0-0-0-0------17/---------|
 - - - - - - - - - - - - - - - - - - - - - - - - - - - - - -


------------------------------------------------------------------------------|
------------------------------------------------------------------------------|
------------------------------------------------------------------------------|
------------------------------------------------------------------------------|
------------------------------------------------------------------------------|
-0-0-0-0-0-0-0-0-0-0-0-0-0-0-0-0-0-0-0-0-0-0-0-0-0-0-0-0-0-0-0-0-0-0----------|
 - - - - - - - - - - - - - - - - - - - - - - - - - - - - - - - - - -



Tremolo Picking
------------------------------------------------------------------------------|
------------------------------------------------------------------------------|
------------------------------------------------------------------------------|
------------------------------------------------------------------------------|
------------------------------------------------------------------------------|
--20-----19---17---15---14------12--14---15---17---20-----19---17---15--14----|


-------------------|----------------------------------------------------------|
---------------x2--|----------------------------------------------------------|
-------------------|----------------------------------------------------------|
-------------------|----------------------------------------------------------|
-------------------|----------------------------------------------------------|
-12-----11---------|----------------------------------------------------------|


Use only your left hand or can be played using tapping... 
------------------------------------------------------------------------------|
------------------------------------------------------------------------------|
------------------------------------------------------------------------------|
------------------------------------------------------------------------------|
------------------------------------------------------------------------------|
--8p7-8p7-8p7-8p7-8p7-8p7-8p7-8p7--8p5-8p5-8p5-8p5-8p5-8p5-8p5-8p5--5p3-5p3---|


------------------------------------------------------------------------------|
-----------------------------------------------------------------x2-----------|
------------------------------------------------------------------------------|
------------------------------------------------------------------------------|
------------------------------------------------------------------------------|
-5p3-5p3-5p3-5p3-5p3-5p3--3p2-3p2-3p2-3p2-3p2-3p2-3p2-3p2---------------------|


------------------------------------------------------------------------------|
------------------------------------------------------------------------------|
------------------------------------------------------------------------------|
--10p9-10p9-10p9-10p9-10p9-10p9-10p9-10p9-10p9--10p7-10p7-10p7-10p7-10p7------|
------------------------------------------------------------------------------|
------------------------------------------------------------------------------|


------------------------------------------------------------------------------|
------------------------------------------------------------------------------|
------------------------------------------------------------------------------|
-10p7-10p7-10p7--7p5-7p5-7p5-7p5-7p5-7p5-7p5-7p5--5p4-5p4-5p4-5p4-5p4-5p4-----|
------------------------------------------------------------------------------|
------------------------------------------------------------------------------|


-----------|------------------------------------------------------------------|
-----------|------------------------------------------------------------------|
-----------|------------------------------------------------------------------|
-5p4-5p4---|------------------------------------------------------------------|
-----------|------------------------------------------------------------------|
-----------|------------------------------------------------------------------|


------------------------------------------------------------------------------|
------------------------------------------------------------------------------|
------------------------------------------------------------------------------|
------------------------------------------------------------------------------|
------------------------------------------------------------------------------|
--2p0-2p0-2p0-2p0-2p0-2p0-2p0-2p0-2p0-2p0-2p0-2p0-2p0-2p0-2p0-2p0-2p0-2p0-2p0-|


------------------------------------------------------------------------------|
------------------------------------------------------------------------------|
------------------------------------------------------------------------------|
------------------------------------------------------------------------------|
------------------------------------------------------------------------------|
-3p0-3p0-3p0-3p0-3p0-3p0-3p0-3p0-3p0-3p0-3p0-3p0-3p0-3p0-3p0-3p0-3p0-3p0-3p0--|


------------------------------------------------------------------------------|
------------------------------------------------------------------------------|
------------------------------------------------------------------------------|
------------------------------------------------------------------------------|
------------------------------------------------------------------------------|
-5p0-5p0-5p0-5p0-5p0-5p0-5p0-5p0-5p0-5p0-5p0-5p0-5p0-5p0-5p0-5p0-5p0-5p0-5p0--|


------------------------------------------------------------------------------|
------------------------------------------------------------------------------|
------------------------------------------------------------------------------|
------------------------------------------------------------------------------|
------------------------------------------------------------------------------|
-7p0-7p0-7p0-7p0-7p0-7p0-7p0-7p0-7p0-7p0-7p0-7p0-7p0-7p0-7p0-7p0-7p0-7p0-7p0--|


-----------------------------------0----0----0--------------------------------|
-----------------------------------0----0----0--------------------------------|
-----------------------------------0----0----0--------------------------------|
---7----5----4---------------------7----5----4--------------------------------|
---x----x----x---------------------x----x----x--------------------------------|
---5----3----2---------------------5----3----2--------------------------------|


------------------------------------------------------------------------------|
------------------------------------------------------------------------------|
------------------------------------------------------------------------------|
---7----5----4-------4-----4/5-----7----5----4---4/5--------------------------|
---x----x----x-------x-----x-x-----x----x----x---x-x--------------------------|
---5----3----2----0--2--0--2/3-----5----3----2---2/3--3p0---------------------|
Добавлено: 31.07.2012
Другие материалы по этой песне:

Страница создана 29.03.2012
http://primanota.ru/gojira/oroborus-chords.htm
Привет, Гость.
Предлагаем пройти революционный курс по гитаре.
Подарок от PrimaNota.Ru, забирай!