PrimaNota.ru - самый крупный в мире бесплатный архив песенных текстов, аккордов, табулатур и нот


Firewind - My Loneliness - текст песни, таба, видео

Регистрация Запомнить меня
Войти через:  Facebook Google Twitter Vk Yandex Mail.ru

Firewind - My Loneliness - текст песни, таба, видео

Печатать
Просмотров: 302
Band: Firewind
Song: My Loneliness
CD:   The Premonition
Year: 2008

________________________
h  = hammer on          |
p  = pull off           |
\  = slide              |
b  = bend               |
~  = vibrato            |
x  = pick scratch       |
________________________|


*Notes: Alright this is just a rough
guess of mostly just the chorus and
a few odd bits here and there. I've
requested someone to tab this but
figured I should post what I have
started. Please someone do this
amazing song, even if my tab is wrong

Update: July 5th/2008: changed the
chorus a little*


  Intro: (clean)
E|-----------------|
B|---------4-3-----|
G|-------5-----5---|
D|-----5-----------|
A|---3-------------|
E|-----------------|


  Verse: (clean)
E|-----------------|
B|---------4-3-----|
G|-------5-----5---|
D|-----5-----------|
A|---3-------------|
E|-----------------|


  Pre chorus: (distorted, palm muted)
E|---------------------|
B|---------------------|
G|---------------------|
D|---5-5-5-5-5-5-5-5---|
A|---5-5-5-5-5-5-5-5---|
E|---3-3-3-3-3-3-3-3---|


  Chorus: (distorted)
E|--------------------------------------------|
B|--------------------------------------------|
G|------------------------------5-5-----5-----|
D|---7-7-xxxx-5-5-xxxx-3-3-xxxx-5-5-----5-----|
A|---7-7-xxxx-5-5-xxxx-3-3-xxxx-3-3-----3-----|
E|---5-5-xxxx-3-3-xxxx-1-1-xxxx------0--------|
 |
 |gtr 2:
E|--------------------------------------------|
B|--------------------------------------------|
G|---12-12-12-12-12-12-12/14-14-14-14-14-14---|
D|--------------------------------------------|
A|---10-10-10-10-10-10-10/12-12-12-12-12-12---|
E|--------------------------------------------|

E|--------------------------------------------|
B|--------------------------------------------|
G|------------------------------5-5-----------|
D|---7-7-xxxx-5-5-xxxx-3-3-xxxx-5-5-----------|
A|---7-7-xxxx-5-5-xxxx-3-3-xxxx-3-3--2-4------|
E|---5-5-xxxx-3-3-xxxx-1-1-xxxx------0-2------|
 |
 |gtr 2:
E|--------------------------------------------|
B|--------------------------------------------|
G|--------------------------------------------|
D|--------------------------------------------|
A|--------------------------------------------|
E|--------------------------------------------|


  Pre verse: (distorted)
E|-----------------|
B|-----------------| (Use wah. For the last note
G|---7p5-5\3-3h5~--| vibrate it, then do a slide
D|-----------------| into nothing and mute it)
A|-----------------|
E|-----------------|


  Verse: (clean)
E|-----------------|
B|---------4-3-----|
G|-------5-----5---|
D|-----5-----------|
A|---3-------------|
E|-----------------|


  Pre chorus: (distorted, palm muted)
E|---------------------|
B|---------------------|
G|---------------------|
D|---5-5-5-5-5-5-5-5---|
A|---5-5-5-5-5-5-5-5---|
E|---3-3-3-3-3-3-3-3---|


  Chorus: (distorted)
E|--------------------------------------------|
B|--------------------------------------------|
G|------------------------------5-5-----5-----|
D|---7-7-xxxx-5-5-xxxx-3-3-xxxx-5-5-----5-----|
A|---7-7-xxxx-5-5-xxxx-3-3-xxxx-3-3-----3-----|
E|---5-5-xxxx-3-3-xxxx-1-1-xxxx------0--------|
 |
 |gtr 2:
E|--------------------------------------------|
B|--------------------------------------------|
G|---12-12-12-12-12-12-12/14-14-14-14-14-14---|
D|--------------------------------------------|
A|---10-10-10-10-10-10-10/12-12-12-12-12-12---|
E|--------------------------------------------|

E|--------------------------------------------|
B|--------------------------------------------|
G|------------------------------5-5-----------|
D|---7-7-xxxx-5-5-xxxx-3-3-xxxx-5-5-----------|
A|---7-7-xxxx-5-5-xxxx-3-3-xxxx-3-3--2-4------|
E|---5-5-xxxx-3-3-xxxx-1-1-xxxx------0-2------|
 |
 |gtr 2:
E|--------------------------------------------|
B|--------------------------------------------|
G|--------------------------------------------|
D|--------------------------------------------|
A|--------------------------------------------|
E|--------------------------------------------|


  Bridge: (distorted)
E|-----------------|
B|-----------------|
G|-----------------|
D|-----------------|
A|-----------------|
E|-----------------|


   Solo: (distorted with wah)
E|----------------|
B|---10-10-9-9----|
G|---9b----9-9----|
D|----------------|
A|----------------|
E|----------------|
 |
 |
E|--------------------------------------------|
B|--------------------------------------------|
G|------------------------------5-5-----5-----|
D|---7-7-xxxx-5-5-xxxx-3-3-xxxx-5-5-----5-----|
A|---7-7-xxxx-5-5-xxxx-3-3-xxxx-3-3-----3-----|
E|---5-5-xxxx-3-3-xxxx-1-1-xxxx------0--------|


  Chorus: (distorted)
E|--------------------------------------------|
B|--------------------------------------------|
G|------------------------------5-5-----5-----|
D|---7-7-xxxx-5-5-xxxx-3-3-xxxx-5-5-----5-----|
A|---7-7-xxxx-5-5-xxxx-3-3-xxxx-3-3-----3-----|
E|---5-5-xxxx-3-3-xxxx-1-1-xxxx------0--------|
 |
 |gtr 2:
E|--------------------------------------------|
B|--------------------------------------------|
G|---12-12-12-12-12-12-12/14-14-14-14-14-14---|
D|--------------------------------------------|
A|---10-10-10-10-10-10-10/12-12-12-12-12-12---|
E|--------------------------------------------|

E|--------------------------------------------|
B|--------------------------------------------|
G|------------------------------5-5-----------|
D|---7-7-xxxx-5-5-xxxx-3-3-xxxx-5-5-----------|
A|---7-7-xxxx-5-5-xxxx-3-3-xxxx-3-3--2-4------|
E|---5-5-xxxx-3-3-xxxx-1-1-xxxx------0-2------|
 |
 |gtr 2:
E|--------------------------------------------|
B|--------------------------------------------|
G|--------------------------------------------|
D|--------------------------------------------|
A|--------------------------------------------|
E|--------------------------------------------|


  Post chorus: (distorted)
E|-----------------|
B|-----------------|
G|-----------------|
D|-----------------|
A|-----------------|
E|-----------------|
 |
 |gtr 2: clean
E|-----------------|
B|---------4-3-----|
G|-------5-----5---|
D|-----5-----------|
A|---3-------------|
E|-----------------|


  Outro: (clean)
E|-----------------|
B|---------4-3-----|
G|-------5-----5---|
D|-----5-----------|
A|---3-------------|
E|-----------------|
Добавлено: 08.07.2012
Другие материалы по этой песне:

Страница создана 17.05.2012
http://primanota.ru/firewind/my-loneliness-chords.htm
Привет, Гость.
Предлагаем пройти революционный курс по гитаре.
Подарок от PrimaNota.Ru, забирай!