PrimaNota.ru - самый крупный в мире бесплатный архив песенных текстов, аккордов, табулатур и нот


Firewind - Before The Storm - таба, видео

Регистрация Запомнить меня
Войти через:  Facebook Google Twitter Vk Yandex Mail.ru

Firewind - Before The Storm - таба, видео

Печатать
Просмотров: 196
tabber: white_dragon_paladin@hotmail.com/Tboi
Tuning: normal
Note: if you know the song you should understand what i mean with the fb.
 __________________________________________________________________________
|                        Before The Storm                                  |
|__________________________________________________________________________|
 ________________________________
|Legend:                         |
|hb = half bend                  |
|fb = full bend                  |
|h = hold note                   |
|~ = slur                        |
|h(hb) = hold note and half bend |
|s = slide                       |
|________________________________|

wait a little while until you come in
  0:07
e|------------------------------------------------------------------------|
b|--------------------------------------------8---5----5-4----------------|
g|-------7---7-5---------------------------7---------7--------------------|
d|----7-----------5--9--7---7fb9fb7-5-5-7---------------------5---5~7-7---|
a|-7------------------------------------------------------------7---------|
e|------------------------------------------------------------------------|
  0:42
e|--------------------------------------------------|
b|------------------5-------5-----------------------|
g|-----5--5fb7----7---7-5-----7---5~7~5~4---4-------|
d|-7-7---7--------------------------------7---6-----|
a|----------------------------------------------7---|
e|--------------------------------------------------|
  0:55
e|-7~8---0-0-3-0-5---3---0---------7~8---8-12-10--87~10-|
b|-------------------------3-1--------------------------|
g|------------------------------------------------------|
d|------------------------------------------------------|
a|------------------------------------------------------|
e|------------------------------------------------------|
  1:14
e|-7~8---0-0-3-0-5---3---5-5-8-5-9hb--10-12-10-8--12--10-8~10~8~7-5-7-4-0-5|
b|-------------------------------------------------------------------------|
g|-------------------------------------------------------------------------|
d|-------------------------------------------------------------------------|
a|-------------------------------------------------------------------------|
e|-------------------------------------------------------------------------|
  1:39
e|-9-10-12-12h(hb)-12-12-10-12-12-12~10~9~8~12-10-10s8-|
b|-----------------------------------------------------|
g|-----------------------------------------------------|
d|-----------------------------------------------------|
a|-----------------------------------------------------|
e|-----------------------------------------------------|

Note that I am not going to continue working on this tab. If others would like to email 
the ending of the song following my tabbing technique I would give credit.
Добавлено: 17.05.2012
Другие материалы по этой песне:

Страница создана 21.03.2012
http://primanota.ru/firewind/before-the-storm-chords.htm
Привет, Гость.
Предлагаем пройти революционный курс по гитаре.
Подарок от PrimaNota.Ru, забирай!