PrimaNota.ru - самый крупный в мире бесплатный архив песенных текстов, аккордов, табулатур и нот


Firewind - Till The End Of Time - таба, видео

Регистрация Запомнить меня
Войти через:  Facebook Google Twitter Vk Yandex Mail.ru

Firewind - Till The End Of Time - таба, видео

Печатать
Просмотров: 146
Авторы: Gus G., Apollo Papathanasio

tabber: white_dragon_paladin@hotmail.com(Tboi)
tuning: D standard

 _____________________________________________________
|                    Till The End Of Time Solo        |
|_____________________________________________________|

note: This is not the entire solo, but I am working on it. also, I spaced out the tab a 
more than needed to just show how fast it is and all of the notes clearly.

d|-17-13-----------17-13----------17-13-------18-13----------18-13---------|
g|-------17-15-17--------17-15-17-------17-15-------17-15-17-------17-15-17|
c|-------------------------------------------------------------------------|
f|-------------------------------------------------------------------------|
a|-------------------------------------------------------------------------|
d|-------------------------------------------------------------------------|

d|-18-13-------22-17----------22-17----------22-17-------|
g|-------17-15-------21-19-21-------21-19-21-------21-19-|
c|-------------------------------------------------------|
f|-------------------------------------------------------|
a|-------------------------------------------------------|
d|-------------------------------------------------------|

That's all for all of the fast stuff and I will be adding more of it if the tab is eccepted
Добавлено: 18.03.2012
Другие материалы по этой песне:

Страница создана 18.03.2012
http://primanota.ru/firewind/till-the-end-of-time-chords.htm
Привет, Гость.
Предлагаем пройти революционный курс по гитаре.
Подарок от PrimaNota.Ru, забирай!