PrimaNota.ru - самый крупный в мире бесплатный архив песенных текстов, аккордов, табулатур и нот


Firewind - Confide - таба, видео

Регистрация Запомнить меня
Войти через:  Facebook Google Twitter Vk Yandex Mail.ru

Firewind - Confide - таба, видео

Печатать
Просмотров: 191
Confide Intro by Firewind
Working on the solo tabbing
Jugband

|-------------0-----------|-------------0-----------|
|----------0-----0--------|----------0-----0--------|
|-------5-----------5-----|-------5-----------5-----|
|----7-----------------7--|----7-----------------7--|
|-0-----------------------|-8-----------------------|
|-------------------------|-------------------------|

|-------------0-----------|-------------0-----------|
|----------6-----6--------|----------0-----0--------|
|-------7-----------7-----|-------7-----------7-----|
|----7-----------------7--|----9-----------------9--|
|-5-----------------------|-7-----------------------|
|-------------------------|-------------------------|

|-------------0-----------|-------------0-----------|
|----------0-----0--------|----------0-----0--------|
|-------5-----------5-----|-------5-----------5-----|
|----7-----------------7--|----7--------------------|
|-0-----------------------|-8--------------------7--|
|-------------------------|-------------------------|

|-------------0-----------|-------------0-----------|
|----------0-----0--------|----------0--------------|
|-------5-----------5-----|-------7-----------------|
|----7-----------------7--|----9--------------------|
|-6-----------------------|-7-----------------------|
|-------------------------|-------------------------|

Добавлено: 08.05.2012
Другие материалы по этой песне:
  • Аккорды и текст

Страница создана 08.05.2012
http://primanota.ru/firewind/confide-chords.htm
Привет, Гость.
Предлагаем пройти революционный курс по гитаре.
Подарок от PrimaNota.Ru, забирай!