PrimaNota.ru - самый крупный в мире бесплатный архив песенных текстов, аккордов, табулатур и нот


Firewind - Ready To Strike - текст песни, таба, видео

Регистрация Запомнить меня
Войти через:  Facebook Google Twitter Vk Yandex Mail.ru

Firewind - Ready To Strike - текст песни, таба, видео

Печатать
Просмотров: 135
----------------------------------------------------------------------------
                             Ready To Strike-Firewind
----------------------------------------------------------------------------
Tabbed by:brokenunder
Email:tears--dont--fall@hotmail.co.uk

Tuning:standard

this is such an amazing solo off allegiance

not all of the solo is right but im sure you can work on it with whats here if you want. :)

rate and comment please :)

e|---10~---10-8~---8-6-8-5-6-3-5-1-5-3----------9(10)-10-13-12-13-15\------|
B|-8-----8-------8---------------------3~----------------------------------|
G|-------------------------------------------------------------------------|
D|-------------------------------------------------------------------------|
A|-------------------------------------------------------------------------|
E|-------------------------------------------------------------------------|


e|-17p15p14-14-15-17-17(19)p15-17--15-17-18-18(20)-15p13----18-15----------|
B|-------------------------------------------------------15----------------|
G|-------------------------------------------------------------------------|
D|-------------------------------------------------------------------------|
A|-------------------------------------------------------------------------|
E|-------------------------------------------------------------------------|

                   |- can be tapped if you want -|
e|15-17-17-18p17p1518p17p1518p17p1518p17p1520p17p1520p17p1520p17p1520p17p15|
B|-------------------------------------------------------------------------|
G|-------------------------------------------------------------------------|
D|-------------------------------------------------------------------------|
A|-------------------------------------------------------------------------|
E|-------------------------------------------------------------------------|

                                                the second isnt right but
                                                  i couldnt work it out.
e|-18-20-20(22)20(22)-20p18---20(22)---------------------------------------|
B|--------------------------20-----------------15---------15---------------|
G|---------------------------------------------17(19)-----14(16)-----------|
D|-------------------------------------------------------------------------|
A|-------------------------------------------------------------------------|
E|-------------------------------------------------------------------------|


e|------------------------------------------------------------------PH-----|
B|--15-15-15-15p13p12-13(15)r--13-12--10-11-11p10-8-10-6-----------<15>----|
G|-------------------------------------------------------7-----12-15---12--|
D|-------------------------------------------------------------------------|
A|-------------------------------------------------------------------------|
E|-------------------------------------------------------------------------|

e|-------------------------------------------------------------------------|
B|------------------------------------------15--15--15--15--15--15--15--15-|
G|-12p10----10-12-14-15-17(19)p15-17---17(19)(19)(19)(19)(19)(19)(19)(19)--|
D|-------12----------------------------------------------------------------|
A|-------------------------------------------------------------------------|
E|-------------------------------------------------------------------------|

     |- not too sure if this is right  -|
e|---------------------------------------------------/15-15-17-18-20-20(22)|
B|-t15p13p10t15p13p10t15p13p10t15p13p10t18p13p10--X2-----------------------|
G|-------------------------------------------------------------------------|
D|-------------------------------------------------------------------------|
A|-------------------------------------------------------------------------|
E|-------------------------------------------------------------------------|

                  trem pick                                   whammybar
e|20(22)-20p18-18----17-----18p17p1518p17p1518p17p1518p17p15-----15~-------|
B|-------------------------------------------------------------------------|
G|-------------------------------------------------------------------------|
D|-------------------------------------------------------------------------|
A|-------------------------------------------------------------------------|
E|-------------------------------------------------------------------------|

theres a bit after this which is something like 15p14p12 on the B string and ends on the 
fret on the G string but im not sure.


| /  slide up
| \  slide down
| h  hammer-on
| p  pull-off
| ~  vibrato
| +  harmonic
| x  Mute note
============================================================================
Добавлено: 25.03.2012
Другие материалы по этой песне:
  • Аккорды и текст

Страница создана 25.03.2012
http://primanota.ru/firewind/ready-to-strike-chords.htm
Привет, Гость.
Предлагаем пройти революционный курс по гитаре.
Подарок от PrimaNota.Ru, забирай!