PrimaNota.ru - самый крупный в мире бесплатный архив песенных текстов, аккордов, табулатур и нот


Firewind - Oceans - бас-таба, видео

Регистрация Запомнить меня
Войти через:  Facebook Google Twitter Vk Yandex Mail.ru

Firewind - Oceans - бас-таба, видео

Печатать
Просмотров: 142
Song:Oceans
Artist:Firewind
Tabbed by:Bass_Lord32
E-Mail:The_Stallion_32@live.com


Tuning:EADG


(0:00)-(0:13)
G|---------------------------------|
D|---------------------------------|
A|--3---------------3-----------1--|
E|------3--34---3-------3--34------|


(0:14)-(0:27)
G|----------------------------------|
D|----------------------------------|
A|---3--------------1-3----------1--|
E|--3----3---4---3--------3---4-----|


(0:28)-(0:40)
G|------------------------------------------------|
D|---------------------------------------------1--|
A|--3---33---3-3---33------1-3----1-3--6\3-4------|
E|-----3----------3----1-3------3-----------------|


(0:41)-(0:54)
G|----------------------------------|
D|----------------------------------|
A|---3--------------2-3----------1--|
E|--3----3--34---3--------3--34-----|


(0:55)-(1:21)
G|-----------------------------------------------------------------------------|
D|-----------------------------------------------------------------------------|
A|---3------------------(1)-3-----------1---13--------------(4)-3-----------1--|
E|--3----3---4---3--(4)---------3---4------3-----3---4---3----------3---4------|


(1:22)-(END)
G|-----------------------------------------------|
D|-----------------------------------------------|
A|--3------------------3-----------1------1/8-3--|
E|------3---4---3--(4)-----3---4-----------------|


*Note*:This song is all about perfect timing, so listen carefully to the song.

*Note*:The frets in (parenthisis) are the ones I'm not sure of.  Please contact me if 
correct them.


END
Добавлено: 28.03.2012
Другие материалы по этой песне:
  • Аккорды и текст

Страница создана 28.03.2012
http://primanota.ru/firewind/oceans-chords.htm
Привет, Гость.
Предлагаем пройти революционный курс по гитаре.
Подарок от PrimaNota.Ru, забирай!