PrimaNota.ru - самый крупный в мире бесплатный архив песенных текстов, аккордов, табулатур и нот


Explosions In The Sky - Magic Hours - таба, бас-таба, видео

Регистрация Запомнить меня
Войти через:  Facebook Google Twitter Vk Yandex Mail.ru

Explosions In The Sky - Magic Hours - таба, бас-таба, видео

Печатать
Просмотров: 297
Уроки эстрадного вокала в Санкт-Петербурге
Magic Hours
Explosions In The Sky
How Strange, Innocence

Tabers tab note: 

I re-tabbed this because i didn't realize i had mest up on the first Magic hours tab. 
tabbing is actually kinda hard because it takes hours some times 
then i got confused on what i typed. but im going to re-tab this
. im sorry if you actually tried to use the other tab and
didn't learn it good or right.

_________________________________________________________


e|------------------------------------------------------|
B|-8-10---8-10---8-10---8-10---8-10---8-10--8-10--------|
G|-9------9------9------9------9------9-----9-----------|
D|------------------------------------------------------|
A|------------------------------------------------------|
E|------------------------------------------------------|
                                                                Chord  
                                                               ________
e|------------------------------------------------------|
B|-8------8-----8-----8------8-----8-----8--------------|
G|-9------9-----9-----9------9-----9-----9--------------|
D|-10-----10----10----10-----10----10----10-------------|
A|------------------------------------------------------|
E|------------------------------------------------------|
_________________________________________________________

e|------------------------------------------------------|
B|-------8------8------8-------8--------8---------------|
G|-----11-----11-----11------11--------11---------------|
D|--------------------------------------0---------------|       Not chord
A|------------------------------------------------------|      ___________
E|------------------------------------------------------|
_________________________________________________________

e|------------------------------------------------------|
B|-8-10---8-10---8-10---8-10---8-10---8-10--8-10--------|
G|-9------9------9------9------9------9-----9-----------|
D|------------------------------------------------------|
A|------------------------------------------------------|
E|------------------------------------------------------|
                                                         
                                                                Chord  
                                                               ________
e|------------------------------------------------------|
B|-8------8-----8-----8------8-----8-----8--------------|
G|-9------9-----9-----9------9-----9-----9--------------|
D|-10-----10----10----10-----10----10----10-------------|
A|------------------------------------------------------|
E|------------------------------------------------------|
_________________________________________________________

e|------------------------------------------------------|
B|-------10------10-----10-----10------10---------------|
G|-----11-----11-----11------11--------11---------------|
D|--------------------------------------0---------------|       Not chord
A|------------------------------------------------------|      ___________
E|------------------------------------------------------|
_________________________________________________________

e|------------------------------------------------------|
B|-8-10---8-10---8-10---8-10---8-10---8-10--8-10--------|
G|-9------9------9------9------9------9-----9-----------|
D|------------------------------------------------------|
A|------------------------------------------------------|
E|------------------------------------------------------|
                                                                Chord  
                                                               ________
e|------------------------------------------------------|
B|-8------8-----8-----8------8-----8-----8--------------|
G|-9------9-----9-----9------9-----9-----9--------------|
D|-10-----10----10----10-----10----10----10-------------|
A|------------------------------------------------------|
E|------------------------------------------------------|

________________________________________________________

e|------------------------------------------------------|
B|-------8------8----8------8---------------------------|
G|-----11----11----11------11---------------------------|     
D|--------------------------0---------------------------|       Not chord
A|------------------------------------------------------|      ___________
E|------------------------------------------------------|
_________________________________________________________

e|------------------------------------------------------|
B|-8-10---8-10---8-10---8-10---8-10---8-10--8-10--------|
G|-9------9------9------9------9------9-----9-----------|
D|------------------------------------------------------|
A|------------------------------------------------------|
E|------------------------------------------------------|
                                                                Chord  
                                                               ________
e|------------------------------------------------------|
B|-8------8-----8-----8------8-----8-----8--------------|
G|-9------9-----9-----9------9-----9-----9--------------|
D|-10-----10----10----10-----10----10----10-------------|
A|------------------------------------------------------|
E|------------------------------------------------------|
_________________________________________________________
                                                                                        
                                                             
e|------------------------------------------------------|
B|-------10------10-----10-----10------10---------------|
G|-----11-----11-----11------11--------11---------------|
D|--------------------------------------0---------------|       Not chord
A|------------------------------------------------------|      ___________
E|------------------------------------------------------|

_________________________________________________________

e|------------------------------------------------------|
B|-8-10---8-10---8-10---8-10---8-10---8-10--8-10--------|
G|-9------9------9------9------9------9-----9-----------|
D|------------------------------------------------------|
A|------------------------------------------------------|
E|------------------------------------------------------|
                                                                Chord  
                                                               ________
e|------------------------------------------------------|
B|-8------8-----8-----8------8-----8-----8--------------|
G|-9------9-----9-----9------9-----9-----9--------------|
D|-10-----10----10----10-----10----10----10-------------|
A|------------------------------------------------------|
E|------------------------------------------------------|
_________________________________________________________
 
This could be wrong. 0:33seconds
e|------------------------------------------------------|
B|-------8-----8-----8----8-----------------------------|
G|----11----11----11------11----------------------------|
D|------------------------0-----------------------------|
A|------------------------------------------------------|
E|------------------------------------------------------|

_________________________________________________________

e|------------------------------------------------------|
B|-8-10---8-10---8-10---8-10---8-10---8-10--8-10--------|
G|-9------9------9------9------9------9-----9-----------|
D|------------------------------------------------------|
A|------------------------------------------------------|
E|------------------------------------------------------|
                                                                Chord  
                                                               ________
e|------------------------------------------------------|
B|-8------8-----8-----8------8-----8-----8--------------|
G|-9------9-----9-----9------9-----9-----9--------------|
D|-10-----10----10----10-----10----10----10-------------|
A|------------------------------------------------------|
E|------------------------------------------------------|
_________________________________________________________

e|------------------------------------------------------|
B|-------8------8------8-------8------------------------|
G|-----11---11----11----11-----10-----------------------|     
D|-----------------------------0------------------------|       Not chord
A|------------------------------------------------------|      ___________
E|------------------------------------------------------|

_________________________________________________________

e|------------------------------------------------------|
B|-8-10---8-10---8-10---8-10---8-10---8-10--8-10--------|
G|-9------9------9------9------9------9-----9-----------|
D|------------------------------------------------------|
A|------------------------------------------------------|
E|------------------------------------------------------|
                                                                Chord  
                                                               ________
e|------------------------------------------------------|
B|-8------8-----8-----8------8-----8-----8--------------|
G|-9------9-----9-----9------9-----9-----9--------------|
D|-10-----10----10----10-----10----10----10-------------|
A|------------------------------------------------------|
E|------------------------------------------------------|
_________________________________________________________

e|------------------------------------------------------|
B|-------10----10------10-----10------------------------|
G|-----11----11----11---------11------------------------|
D|-----------------------------0------------------------|     Not chord
A|------------------------------------------------------|    __________
E|------------------------------------------------------|

_________________________________________________________

e|------------------------------------------------------|
B|-8-10---8-10---8-10---8-10---8-10---8-10--8-10--------|
G|-9------9------9------9------9------9-----9-----------|
D|------------------------------------------------------|
A|------------------------------------------------------|
E|------------------------------------------------------|
                                                                Chord  
                                                               ________
e|------------------------------------------------------|
B|-8------8-----8-----8------8-----8-----8--------------|
G|-9------9-----9-----9------9-----9-----9--------------|
D|-10-----10----10----10-----10----10----10-------------|
A|------------------------------------------------------|
E|------------------------------------------------------|
_________________________________________________________

1:01seconds
e|------------------------------------------------------|
B|-------8-----8-----8-----10---------------------------|
G|-----11----11----11------11---------------------------|
D|--------------------------0---------------------------|     Not chord
A|------------------------------------------------------|    __________
E|------------------------------------------------------|

________________________________________________________

e|------------------------------------------------------|
B|-8-10---8-10---8-10---8-10---8-10---8-10--8-10--------|
G|-9------9------9------9------9------9-----9-----------|
D|------------------------------------------------------|
A|------------------------------------------------------|
E|------------------------------------------------------|
                                                                Chord  
                                                               ________
e|------------------------------------------------------|
B|-8------8-----8-----8------8-----8-----8--------------|
G|-9------9-----9-----9------9-----9-----9--------------|
D|-10-----10----10----10-----10----10----10-------------|
A|------------------------------------------------------|
E|------------------------------------------------------|
_________________________________________________________


e|------------------------------------------------------|
B|------10----10----10----10----------------------------|
G|----11----11----11------11----------------------------|
D|-------------------------0----------------------------|
A|------------------------------------------------------|
E|------------------------------------------------------|
Добавлено: 11.04.2012
Другие материалы по этой песне:
  • Аккорды и текст

Страница создана 31.03.2012
http://primanota.ru/explosions-in-the-sky/magic-hours-chords.htm
Привет, Гость.
Предлагаем пройти революционный курс по гитаре.
Подарок от PrimaNota.Ru, забирай!