PrimaNota.ru - самый крупный в мире бесплатный архив песенных текстов, аккордов, табулатур и нот


Explosions In The Sky - Six Days At The Bottom Of The Ocean - таба, видео

Регистрация Запомнить меня
Войти через:  Facebook Google Twitter Vk Yandex Mail.ru

Explosions In The Sky - Six Days At The Bottom Of The Ocean - таба, видео

Печатать
Просмотров: 270
Explosions In the Sky
"Six Days At the Bottom of the Ocean"
'Earth is Not A Cold Dead Place' album


Intro - with delay (?)
(0:00)-(0:18)

e--------7-------------------------------------------|
B-----(repeat)---------------------------------------|
G----------------------------------------------------|
D----------------------------------------------------|
A----------------------------------------------------|
E----------------------------------------------------|


1st Guitar
(0:15)-(4:04)

e----------------------------------------------------|
B----------------------------------------------------|
G--4-4-3-----3-4---3-----4-4-3----3-4---3------------|
D----------------4---6-----------------4---6---------|
A--------6----------------------6--------------------|
E----------------------------------------------------|

e----------------------------------------------------|
B--9-9---7----9-9---7-----5-5-4-----------0----------|
G------9----------9------------------3--3------------|
D----------9-----------9----------6-----------4-6----|
A----------------------------------------------------|
E----------------------------------------------------|


2nd Guitar
(0:56)-(1:34)

e--14--11--12----11----(x2)--------------------------|
B--------------14----12------------------------------|
G----------------------------------------------------|
D----------------------------------------------------|
A----------------------------------------------------|
E----------------------------------------------------|


e--14--12--11--9--11----------14-12---11-16----------|
B--16------12-----12---12-----16------12-------------|
G----------------------------------------------------|
D----------------------------------------------------|
A----------------------------------------------------|
E----------------------------------------------------|


e--14--12---18--16--16--14---------------------------|
B--16------------------------------------------------|
G----------------------------------------------------|
D----------------------------------------------------|
A----------------------------------------------------|
E----------------------------------------------------|


3rd Guitar
(0:56)-(3:23)

e--7--9------------11--7---11--9--7--11--14----------|
B--------7--9--11------------------------------------|
G----------------------------------------------------|
D----------------------------------------------------|
A----------------------------------------------------|
E----------------------------------------------------|


2nd Guitar
(1:37) - (2:09)

e---------------------------11-----------------------|
B--11-7-----11-7---------9-------11-7-----11-7-------|
G-------8--------8----11---------------8-------8-----|
D----------------------------------------------------|
A----------------------------------------------------|
E----------------------------------------------------|


2nd Guitar
(2:30)-(4:50)

Play Twice
e--14--11--12----11----------------------------------|
B--------------14----12------------------------------|
G----------------------------------------------------|
D----------------------------------------------------| - (x3)
A----------------------------------------------------|
E----------------------------------------------------|

e--14-11-11-12-12-11-11-12-12-11-11-12-12-11-11------|
B----------------------------------------------------|
G----------------------------------------------------|
D----------------------------------------------------|
A----------------------------------------------------|
E----------------------------------------------------|


Play Three Times
e--14--11--12----11--16--14--------------------------|
B--------------14------------------------------------|
G----------------------------------------------------|
D----------------------------------------------------| - (x3)
A----------------------------------------------------|
E----------------------------------------------------|

e--14-11-11-12-12-11-11-12-12-11-11-12-12-11-11------|
B----------------------------------------------------|
G----------------------------------------------------|
D----------------------------------------------------|
A----------------------------------------------------|
E----------------------------------------------------|


Ending of this part
e--14--11--11--12--12--11--11--12--12--16--18--------|
B----------------------------------------------------|
G----------------------------------------------------|
D----------------------------------------------------|
A----------------------------------------------------|
E----------------------------------------------------|


e--18-16--14--18-16--18-16--18-16--18-16--18-16------|
B----------------------------------------------------|
G----------------------------------------------------|
D----------------------------------------------------|
A----------------------------------------------------|
E----------------------------------------------------|

e--14--12-----------17-18-15-17-13-15-12-------------|
B----------15--13------------------------------------|
G----------------------------------------------------|
D----------------------------------------------------| 
A----------------------------------------------------|
E----------------------------------------------------|

1st Guitar
(4:48) - (5:54)
e----------------------------------------------------|
B--10-------------10-10-------------10---------------|
G-------------10------------------10-----------------|
D----12-12-12-----------12-12-12---------------------|
A----------------------------------------------------|
E----------------------------------------------------|

e----------------------------------------------------|
B----------------------------------------------------|
G--12--------------12-12---------------12------------|
D-----10-10-10-14---------10-10-10-14----------------|
A----------------------------------------------------|
E----------------------------------------------------|

2nd Guitar
Notes Hit Repeatedly
(5:04)-(5:56)
e--13--12--15--13---------------------------------*--|
B-------------------13--10---------------------------|
G---------------------------12-----------------------|
D----------------------------------------------------|
A----------------------------------------------------|
E----------------------------------------------------|

e--13--15--12--13---------------------------------**-|
B-------------------13--10------------------------*--|
G---------------------------12-----------------------|
D----------------------------------------------------|
A----------------------------------------------------|
E----------------------------------------------------|

3rd Guitar
(5:21)-(5:53)
Play 2 times

e----------------------------------------------------|
B----------------------------------------------------|
G--14---------14-15-14-12-10--12------------------**-|
D----------------------------------------------------|
A----------------------------------------------------|
E----------------------------------------------------|

e----------------------------------------------------|
B----------------------------------------------------|
G--14-------------15/12------------------------------|
D----------------------------------------------------|
A----------------------------------------------------|
E----------------------------------------------------|


2nd Guitar
(5:54)-(7:00)

e----------------------------------------------------|
B--10--10---13--10--15--10--13--10-------------------|
G----------------------------------------------------|
D----------------------------------------------------|
A----------------------------------------------------|
E----------------------------------------------------|


e----------------------------------------------------|
B--10--15--10---15--13--10---10--15--10--------------|
G----------------------------------------------------|
D----------------------------------------------------|
A----------------------------------------------------|
E----------------------------------------------------|

e----------------------------------------------------|
B--13--15--13--10------------------------------------|
G----------------------------------------------------| - x8
D----------------------------------------------------|
A----------------------------------------------------|
E----------------------------------------------------|


Hit Repeatedly
(7:00)-(7:47)

e--13--15-13-12-13-15-17-13--------------------------|
B----------------------------------------------------|
G----------------------------------------------------|
D----------------------------------------------------|
A----------------------------------------------------|
E----------------------------------------------------|

(7:47)-(8:40)

e----------------------------------------------------|
B----------------------------------------------------|
G-----12-14------------------------------------------|
D--15-------14---15-14-12--15-14-12-10-----10--------|
A---------------------------------------12-----------|
E----------------------------------------------------|
Добавлено: 25.06.2012
Другие материалы по этой песне:

Страница создана 21.03.2012
http://primanota.ru/explosions-in-the-sky/six-days-at-the-bottom-of-the-ocean-chords.htm
Привет, Гость.
Предлагаем пройти революционный курс по гитаре.
Подарок от PrimaNota.Ru, забирай!