PrimaNota.ru - самый крупный в мире бесплатный архив песенных текстов, аккордов, табулатур и нот


Explosions In The Sky - Human Qualities - таба, видео

Регистрация Запомнить меня
Войти через:  Facebook Google Twitter Vk Yandex Mail.ru

Explosions In The Sky - Human Qualities - таба, видео

Печатать
Просмотров: 242
~~~HUMAN QUALITIES~~~
Great new song by Explosions in the Sky. 
Played in the key of D - standard tuning
Let me know if you have any comments or questions


Guitar 1 - Beginning Riff- Generally played throughout the whole first half of the song
e|--------------------------------------------------------|
B|--------------------------------------------------------|
G|------2---2--------2---2-------2---2-------2------------|
D|----4---4---4----4---4---4---4---4---4---4---4---4------|
A|--5------------0-----------2-----------2-------4--------|
E|--------------------------------------------------------|

Repeat 4 times, then this comes in:

Guitar 2
e|---------------------------------------------------------------------------------------|
B|---------------------------------------------------------------------------------------|
G|--11--11--11--11--12--12--9--9--9--9-/-14--14------------------------------------------|
D|------------------------------------------------12--12--12--12--11--11--11/12--12--12--|
A|---------------------------------------------------------------------------------------|
E|---------------------------------------------------------------------------------------|


Guitar 2- 1:16
e|----------------------------------------------------------------------|
B|----------------------------------------------------------------------|
G|----------------------------------------------------------------------|
D|---7--9----------------------------7--9-------------------------------|
A|---------9--------------------------------9---------------------------|
E|--------------10--10--10--9--7----------------10--10--10--9--9--10----|


And again:
Guitar 2 - 1:37
e|---------------------------------------------------------------------------------------|
B|---------------------------------------------------------------------------------------|
G|--11--11--11--11--12--12--9--9--9--9-/-14--14------------------------------------------|
D|------------------------------------------------12--12--12--12--11--11--11/12--12--12--|
A|---------------------------------------------------------------------------------------|
E|---------------------------------------------------------------------------------------|

Play 4 times

Guitar 1 stops- 2:18

Guitar 2:
e|------------------------|
B|------------------------|
G|------------------------|
D|---11/12--12--12--------|
A|------------------------|
E|------------------------|

Repeat and fade out..



Guitar 1- 3:30
e|-------------------------------------------------------------------|
B|-------------------------------------------------------------------|
G|---4---4---4---4---4---4---2---2---2---2---2---2-------------------|
D|-----4---4---4---4---4---4---4---4---4---4---4---4-----------------|
A|-------------------------------------------------------------------|
E|-------------------------------------------------------------------|

Repeat

Guitar 2- 4:10

e|-----------------------------------------------------------------|
B|----------------------------7--8--------------12-----------------|
G|---------7---------------7-----------( x2 )---12-----------------|
D|--7/9--9----9--7--7/9--9-----------------------------------------|
A|-----------------------------------------------------------------|
E|-----------------------------------------------------------------|

e|-----------------------------------------------------------------------------------|
B|----------------------------7--8----12-12-12-12-12-10-10-10-10-10-8-8-8-8-8-10-10--|
G|---------7---------------7----------12-12-12-12-12-11-11-11-11-11-9-9-9-9-9-11-11--|
D|--7/9--9----9--7--7/9--9-----------------------------------------------------------|
A|-----------------------------------------------------------------------------------|
E|-----------------------------------------------------------------------------------|

e|-----------------------------------------------------------------------------------|
B|----------------------------7--8----12-12-12-12-12-10-10-10-10-10-12-12-12-12-15---|
G|---------7---------------7----------12-12-12-12-12-11-11-11-11-11-12-12-12-12-16---|
D|--7/9--9----9--7--7/9--9-----------------------------------------------------------|
A|-----------------------------------------------------------------------------------|
E|-----------------------------------------------------------------------------------|


5:01- repeat twice.

e|------------------------------------------------------------------------------------|
B|-------------------------------12-12-12-12------------------------------------------|
G|-11-11-11-12-14-12-11--( x4 )-----------------14-14-14-14---12-12-12-12--11---------|
D|-----------------------------------------------------------------------------14-12--|
A|------------------------------------------------------------------------------------|
E|------------------------------------------------------------------------------------|

A few of these riffs are then repeated


Guitar 2- 6:18

e|-------------------------------------------|
B|---12--11----------12--11------------------|
G|--------------------------------12---------|
D|-----------12/14----------12/14------------|
A|-------------------------------------------|
E|-------------------------------------------|


Guitar 2- 6:44

e|-----------------------------------------------------------------------------------------------|
B|15-15-15-15-15-12-15-12-15-15-15-15-15-12-15-12------------------------------------------------|
G|------------------------------------------------17-17-17-17-17-16-17-16-17-17-17-17-17-16-17-16|
D|-----------------------------------------------------------------------------------------------|
A|-----------------------------------------------------------------------------------------------|
E|-----------------------------------------------------------------------------------------------|
Добавлено: 19.05.2012
Другие материалы по этой песне:
  • Аккорды и текст

Страница создана 30.03.2012
http://primanota.ru/explosions-in-the-sky/human-qualities-chords.htm
Привет, Гость.
Предлагаем пройти революционный курс по гитаре.
Подарок от PrimaNota.Ru, забирай!