PrimaNota.ru - самый крупный в мире бесплатный архив песенных текстов, аккордов, табулатур и нот


Explosions In The Sky - Home - таба, видео

Регистрация Запомнить меня
Войти через:  Facebook Google Twitter Vk Yandex Mail.ru

Explosions In The Sky - Home - таба, видео

Печатать
Просмотров: 159
Artist      : Explosions in the Sky
Song        : Home
Album       : Friday Night Lights Soundtrack
Posted on   : Ultimate-Guitar.com, 4/3/2011
Posted in   : A loft

Tabbed by Bird Priest and s1gma

The actual rhythm and dynamics you have to figure out yourself by listening the song,
we just tabbed all of the notes we heard.  Guitar 3 starts the song and plays pretty
high notes, while 1 and 2 are the main interacting melodies.

Guitar 1 - repeats throughout the entire song.  (h) = 12th fret harmonic
e|-------------0--------------------------------0-----------------------------------|
b|---------0-------4------------------------0-------(h)-----------------------------|
g|----------------------------------------------------------------------------------|
d|-----6---2---------4--------------1---2---2-------------4----------4--------------|
a|-----4-------------2------1---4-------0-----------------2---1--4------------------|
e|---------0--------------------------------0---------------------------------------|

Guitar 2 - comes in after Guitar 1 plays once, then plays twice- once with Ending 1,
once with Ending 2, rests while guitar 1 plays alone and then finishes with Ending 3
e|----------------------------------------------------------------------------------|
b|----------------------------------------------------------------------------------|
g|----------------------------------------------------------------------------------|
d|-16/14---14/13---13/16--------16---16/11---11/13---13/9---9---9/11--11---11/8---8-|
a|-14/12---12/11---11/14---x3---14---14/9----9/11----11/7---7---7/9---9----9/6----6-|
e|----------------------------------------------------------------------------------|

          Ending 1                    Ending 2                    Ending 3
e|-------------------------|----------------------------|---------------------------|
b|-------------------------|----------------------------|---------------------------|
g|-------------------------|----------------------------|---------------------------|
d|----------8/16-----------|-------------8/9------------|----8/9---9/8---(Let ring)-|
a|----------6/14-----------|-------------6/7------------|----6/7---7/6--------------|
e|-------------------------|----------------------------|---------------------------|

Guitar 3 - starts the song with this. It's strummed backwards.
e|-----------11---11---11---11---11---11---11---11---11---11---11---11--------------|
b|------------------------------------------------------------------9---------------|
g|-----------8----8----8----8----8----8----8----8----8----8----8----8---------------|
d|----------------------------------------------------------------------------------|
a|----------------------------------------------------------------------------------|
e|----------------------------------------------------------------------------------|

then repeats this until Guitar 2 starts for the first time. () = play softly.
e|-----11---11---11---11---11---11--------------------------------------------------|
b|----(9)--(9)---9---(9)---9----9-------------------------------(9)-----------------|
g|----(8)--(8)---8---(8)---8----8---------------------------------------------------|
d|------------------------------------------------------Fade out with this----------|
a|------------------------------------------------------and bend it slightly--------|
e|----------------------------------------------------------------------------------|

After Guitar 2 plays through once, it starts this and repeats it once
e|----------------------------------------------------------------------------------|
b|-----12---12---12---12---12--------------12---12---12------- These two notes are--|
g|------------------------------14---x2----13---13---13---x4--actually only a delay-|
d|----------------------------------------------------------------------------------|
a|----------------------------------------------------------------------------------|
e|----------------------------------------------------------------------------------|

including this
e-----14---14---14---14---14--------------12---12---12------------------------------|
b|----11---11---11---11---11---9---x2-----13---13---13---x4---(delay again)---------|
g|----------------------------------------------------------------------------------|
d|----------------------------------------------------------------------------------|
a|----------------------------------------------------------------------------------|
e|----------------------------------------------------------------------------------|

then repeat the delayed part until the end of song.  Please leave us comments!
Добавлено: 14.06.2012
Другие материалы по этой песне:

Страница создана 14.06.2012
http://primanota.ru/explosions-in-the-sky/home-chords.htm
Привет, Гость.
Предлагаем пройти революционный курс по гитаре.
Подарок от PrimaNota.Ru, забирай!