PrimaNota.ru - самый крупный в мире бесплатный архив песенных текстов, аккордов, табулатур и нот


Explosions In The Sky - A Song For Our Fathers - таба, бас-таба, видео

Регистрация Запомнить меня
Войти через:  Facebook Google Twitter Vk Yandex Mail.ru

Explosions In The Sky - A Song For Our Fathers - таба, бас-таба, видео

Печатать
Просмотров: 194
Explosions In the Sky
"A Song For Our Fathers"
'How Strange, Innocence' album

1st Guitar
(0:37)-(1:36)
Played faintly in background.

e--------------------------------------------------------------------|
B--------------------------------------------------------------------|
G--9-9--9-7-7---9-9--9-7-7---9-9--9-7-7--14----14----14----14--------|
D-------------------------------------------12----12----12----12-----|
A--------------------------------------------------------------------|
E--------------------------------------------------------------------|


2nd Guitar
(0:49)-(1:46)

E|-------------------------------------------------------------------|
B|-------------------------------------------------------------------|
G|-9-9--9/11-11h12p11--9-9--9/11-11h12p11--9-9--9/11-11h12p11--------|  
D|-------------------------------------------------------------------|
A|-------------------------------------------------------------------|
E|-------------------------------------------------------------------|

E|-------------------------------------------------------------------|
B|-------------------------------------------------------------------|
G|-11h12p11-11h12p11-11h12p11----------------------------------------| 
D|-------------------------------------------------------------------|
A|-------------------------------------------------------------------|
E|-------------------------------------------------------------------|

E|-------------------------------------------------------------------|
B|-------------------------------------------------------------------|
G|-11/9-9/11-11/9----------------------------------------------------|
D|-------------------------------------------------------------------|
A|-------------------------------------------------------------------|
E|-------------------------------------------------------------------|

E|-------------------------------------------------------------------|
B|-------------------------------------------------------------------|
G|-11h12p11-11h12p11-11h12p11----------------------------------------|
D|-------------------------------------------------------------------|
A|-------------------------------------------------------------------|
E|-------------------------------------------------------------------|




E|-------------------------------------------------------------------|
B|-------------------------------------------------------------------|
G|-9-9--9/11-11h12p11--9-9--9/11-11h12p11--9-9--9/11-11h12p11--------|
D|-------------------------------------------------------------------|
A|-------------------------------------------------------------------|
E|-------------------------------------------------------------------|

E|-------------------------------------------------------------------|
B|-------------------------------------------------------------------|
G|-11/9-9/11-11/9-9/11-11/9-9/11-11/9-9------------------------------| 
D|-------------------------------------------------------------------|
A|-------------------------------------------------------------------|
E|-------------------------------------------------------------------|

E|-------------------------------------------------------------------|
B|-------------------------------------------------------------------|
G|-7-7-7-7-7/9-9-9-9----11-9-11-14-9---------------------------------|
D|-------------------------------------------------------------------|
A|-------------------------------------------------------------------|
E|-------------------------------------------------------------------|

1st guitar
(1:47)-(1:56) 

E|-------------------------------------------------------------------|
B|-------------------------------------------------------------------|
G|-------------------------------------------------------------------|
D|-------------------------------------------------------------------|
A|--7------------5--------------12-----------------------------------|
E|-------------------------------------------------------------------|

1st Guitar
Play 4 Times
(1:58)-(2:50)

E|-------------------------------------------------------------------|
B|-------------------------------------------------------------------|
G|-------------------------------------------------------------------|
D|-------------------------------------------------------------------|
A|--7/9-9/7-7/9-9/7--12/10-9--7/9-9/7-7/9-9/7--12/10-9---------------| 
E|-------------------------------------------------------------------| 
                                                                                                       
E|-------------------------------------------------------------------|     
B|-------------------------------------------------------------------| 
G|-------------------------------------------------------------------|
D|-----------------------7-------------------------------------------|
A|--7/9-9/7-7/9-9/7--5------5-5-5--9h10p9--9h10p9--------------------|
E|-------------------------------------------------------------------|


5th time ends like this

E|-------------------------------------------------------------------|
B|-------------------------------------------------------------------|
G|-------------------------------------------------------------------|
D|-------------------------------------------------------------------|
A|--7/9-9/7-7/9-9/7--12/10-9--7/9-9/7-7/9-9/7--12/10-9---------------| 
E|-------------------------------------------------------------------| 
                                                                                                       
E|-------------------------------------------------------------------|     
B|-------------------------------------------------------------------| 
G|-------------------------------------------------------------------|
D|-----------------------7-----------(Play till it fades out)--------|
A|--7/9-9/7-7/9-9/7--5------5-5-5---------9h10p9--9h10p9-------------|
E|-------------------------------------------------------------------|

1st Guitar
(2:57)-(3:08)

First time is played slow

E|-------------------------------------------------------------------|
B|--14-14--14-14-14--14-12-12--12-12-12--12-14-14--14-14-14----------|
G|-------------------------------------------------------------------|
D|-------------------------------------------------------------------|
A|-------------------------------------------------------------------|
E|-------------------------------------------------------------------|

E|-------------------------------------------------------------------|
B|--14-12-12--12-----------------------------------------------------|
G|----------------12-12-12--11-11-11---------------------------------|
D|-------------------------------------------------------------------|
A|-------------------------------------------------------------------|
E|-------------------------------------------------------------------|


(3:09)-(5:22)

E|-------------------------------------------------------------------|
B|--14----12----14----12---------------------------------------------|
G|---------------------------12----11----12----14----11----12--------|
D|-------------------------------------------------------------------|
A|-------------------------------------------------------------------|
E|-------------------------------------------------------------------|

2nd Guitar
Distortion
(3:45), (3:57), (4:20)

E|--------------|
B|----4---------|
G|----4---------|
D|----4---------|
A|----2---------|
E|--------------|

(4:44)-(5:04)

E|-------14-12-14^--14h12p14-----12-----|
B|--16^---------------------------------|
G|--------------------------------------|x4
D|--------------------------------------|
A|--------------------------------------|
E|--------------------------------------|

(5:08)

E|---------|
B|----4----|
G|----4----|
D|----4----| end in noise.
A|----2----|
E|---------|
Добавлено: 12.03.2012
Другие материалы по этой песне:

Страница создана 21.02.2012
http://primanota.ru/explosions-in-the-sky/a-song-for-our-fathers-chords.htm
Привет, Гость.
Предлагаем пройти революционный курс по гитаре.
Подарок от PrimaNota.Ru, забирай!