PrimaNota.ru - самый крупный в мире бесплатный архив песенных текстов, аккордов, табулатур и нот


Explosions In The Sky - So Long Lonesome - таба, видео

Регистрация Запомнить меня
Войти через:  Facebook Google Twitter Vk Yandex Mail.ru

Explosions In The Sky - So Long Lonesome - таба, видео

Печатать
Просмотров: 274
Уроки эстрадного вокала в Санкт-Петербурге
-----------------------------------------------------------------------------
                            So Long, Lonesome - Explosions in the Sky
-----------------------------------------------------------------------------
Tabbed by:Stubbgubben
Email:

Tuning: standard

My all time favourite EitS song. Thought i'd tab it for you. 


Intro:

e|--------------------------------|
B|--------------------------------|
G|--------------------------------|
D|----4-4-----4-4-----4-4-----4-4-|
A|-2~------2~---------------------|
E|-----------------4~------4~-----| x4

Next bit:

e|--------------------------------|
B|-6-6--6-/7--7-7--7-/9-----------|
G|--------------------------------|
D|--------------------------------|
A|--------------------------------|
E|--------------------------------| x2


e|-6-6--6-\4--9-9--9-\7--7-7--7-\6|
B|--------------------------------|
G|--------------------------------|
D|--------------------------------|
A|--------------------------------|
E|--------------------------------| x2

e|--------------------------------|
B|-7-7--7-/9--2-2--2-/4-----------|
G|--------------------------------|
D|--------------------------------|
A|--------------------------------|
E|--------------------------------| x2


Play the intro twice again and then the next bit again into the climax where this bit is played:

e|--------------------------------|
B|--------------------------------|
G|--3--3~---3--3~---3--3~---3--3~-|
D|--------------------------------|
A|--------------------------------|
E|--------------------------------| until the end

Listen to the song to get a hang of it! Great tune, easy to play. Enjoy!

/Stubbgubben
Добавлено: 25.06.2012
Другие материалы по этой песне:
  • Аккорды и текст

Страница создана 25.06.2012
http://primanota.ru/explosions-in-the-sky/so-long-lonesome-chords.htm
Привет, Гость.
Предлагаем пройти революционный курс по гитаре.
Подарок от PrimaNota.Ru, забирай!