PrimaNota.ru - самый крупный в мире бесплатный архив песенных текстов, аккордов, табулатур и нот


Explosions In The Sky - Postcard From 1952 - таба, видео

Регистрация Запомнить меня
Войти через:  Facebook Google Twitter Vk Yandex Mail.ru

Explosions In The Sky - Postcard From 1952 - таба, видео

Печатать
Просмотров: 272
Уроки эстрадного вокала в Санкт-Петербурге
-------------------------------------------------------------------------------
                             Postcard from 1952- Explosions in the Sky
-------------------------------------------------------------------------------
Tabbed by:Bob86
Email:robertogori@hotmail.it

Tuning:Standard
(Mainly Munaf Rayani's guitar part, at least that's how i play it)

(0:06)--(1:23) *Intro,repeat this part with delay*

e-10------------------------------------------------|
B-11------------------------------------------------|
G------7---------7----------------------------------|
D---------------------------------------------------|
A---------------------------------------------------|
E----------6----------------------------------------|

 (1:24)--(2:20) Riff a *without delay*
e---------------------------------------------------|
B---------------------------------------------------|
G---------------------------------------------------|x2
D---12--15-12-----12--15-12-----12--15-12-----------|
A-13--13-----13-13--13-----13-13--13-----13\888888--|
E---------------------------------------------------|All of this
                Riff b                                     twice
e|--------------------------------------------------|
B|--------------------------------------------------|
G|--------------------------------------------------|x2
D|--5-8-5---5-8-5--------5-8-5---5-8-5--------------|
A|-6-6---6-6-6---6-5--6-6-6---6-6-6---6-5-----------|
E|----------------------------------------6---------|

  (2:35)--(2:53) *some random notes i think he plays with slight delay*
e|--------------------------------------------------|
B|-6-6-----6-6----6----6----------------------------|
G|-7-7-----7-7----7----7-10-------------------------|
D|--------------------------------------------------|
A|--------------------------------------------------|
E|--------------------------------------------------|

  (2:53)--(3:29) *with delay*
e|------------------------------------------------------|
B|------------------------------------------------------|
G|-15-14\10-12-10--12-10--12-10-------------------------|x2
D|---------------12-----10-----8-7--7-------------------|
A|--------------------------------8--8------------------|
E|------------------------------------10--10-10-10-8-6--|

  (3:06)--(3:17)
e|------------------------------------------------------|
B|------------------------------------------------------|
G|-15-14\10-12-10--12-10--12-10-------------------------|Play this
D|---------------12-----10-----8-7--7-------------------|variation
A|--------------------------------8--8------------------|
E|------------------------------------10--10-10-10-11-13|

  (3:30)--(3:41)
e|-------------------------------888--666---------------|
B|------------------------------------------------------|
G|-8-7--10-7-8-7--10-7-8-7--10-7------------------------|x2
D|------------------------------------------------------|
A|------------------------------------------------------|
E|------------------------------------------------------|

  (3:42)--(4:06) *always with delay*
e|------------------------------------------------------|
B|-15--15--15--15--15--15--13--13--13--16--16--16-------|
G|---15--15--15--15--15--15--15--15--15--15--15--15-----|
D|------------------------------------------------------|
A|------------------------------------------------------|
E|------------------------------------------------------|

e|------------------------------------------------------|
B|-15--15--15--15--15--15--13--13--13--18--18--18-------|
G|---15--15--15--15--15--15--15--15--15--15--15--15-----|
D|------------------------------------------------------|
A|------------------------------------------------------|
E|------------------------------------------------------|

e|----------------------------------------------------|
B|----------16--------16--------16--181818-151515-----|
G|-15-15-15---15-15-15--15-15-15----------------------|x2
D|----------------------------------------------------|
A|----------------------------------------------------|
E|----------------------------------------------------|

  (4:07)--(4:46)
e|---------------------------------------------------------------|
B|-18--18--18-16--16--16-15--15--15-1515151515-------------------|
G|---15--15-----15--15-----15--15---1515151515-------------------|x2
D|---------------------------------------------------------------|
A|---------------------------------------------------------------|
E|---------------------------------------------------------------|

e|----------------------------------------------------|
B|----------16--------16--------16--181818-151515-----|
G|-15-15-15---15-15-15--15-15-15----------------------|x2
D|----------------------------------------------------|
A|----------------------------------------------------|
E|----------------------------------------------------|

e|---------------------------------------------------------------|
B|-18--18--18-16--16--16-15--15--15-1515151515h151515151515151515|
G|---15--15-----15--15-----15--15---1515151515h151515151515151515|x2
D|---------------------------------------------------------------|
A|---------------------------------------------------------------|
E|---------------------------------------------------------------|

  (4:47)--(5:16)
e|----------------------------------------------------|
B|----------16--------16--------16--181818-151515-----|
G|-15-15-15---15-15-15--15-15-15----------------------|x2
D|----------------------------------------------------|
A|----------------------------------------------------|
E|----------------------------------------------------|

e|----------------------------------------------------|
B|-18--18--18-16--16--16-15--15--15-15151515----------|
G|---15--15-----15--15-----15--15---15151515----------|
D|----------------------------------------------------|
A|----------------------------------------------------|
E|----------------------------------------------------|

e|-------------------------------------------------------------------------|
B|--?---?--?-11--11--11------------------15151515151515h1818181818181818---|
G|---15--15-----15--15--15--15-----------15151515151515h1515151515151515---|
D|------------------------19--19-191919------------------------------------|
A|-------------------------------------------------------------------------|
E|-------------------------------------------------------------------------|

  (5:17)--(5:41)
e|---------------------------------------------------------------------|
B|---------------------------------------------------------------------|
G|-15-14-12--------15-14-12--------15-14-12--------h1515151515---------|x4
D|---------15-13-12--------15-13-12--------15-13-12h1212121212---------|
A|-------------------------------------------------h1313131313---------|
E|---------------------------------------------------------------------|

  (5:42)--(6:18) *ok here it's a little messy,few power chords, listen to the song  to 
figure  out the timing*
e|---------------------------------------------------------------------|
B|------------15151515---13131313------------15------------------------|
G|-15151515---15151515---15151515---end with-15--let ring--------------|
D|-12121212---xxxxxxxx---xxxxxxxx------------xx------------------------|
A|-13131313---13131313---13131313------------13------------------------|
E|---------------------------------------------------------------------|

  (6:19)--(6:50) *Same as the beginning, repeat in order
  Introx2
  Riff ax2
  Riff b

************************************

| /   slide up
| \   slide down
| h   hammer-on
| p   pull-off
| ~   vibrato
| +   harmonic
| x   Mute note
| b   Bend
| pb  Pre-bend
| br  Bend release
| pbr Pre-bend release
| brb Bend release bend

************************************
Добавлено: 11.04.2012
Другие материалы по этой песне:
  • Аккорды и текст

Страница создана 11.04.2012
http://primanota.ru/explosions-in-the-sky/postcard-from-1952-chords.htm
Привет, Гость.
Предлагаем пройти революционный курс по гитаре.
Подарок от PrimaNota.Ru, забирай!