PrimaNota.ru - самый крупный в мире бесплатный архив песенных текстов, аккордов, табулатур и нот


Explosions In The Sky - Remember Me As A Time Of Day - таба, видео

Регистрация Запомнить меня
Войти через:  Facebook Google Twitter Vk Yandex Mail.ru

Explosions In The Sky - Remember Me As A Time Of Day - таба, видео

Печатать
Просмотров: 174
Song: Remember Me As A Time of Day
Band: Explosions in the Sky
Album: Friday Night Lights Soundtrack
Tabber: James Simmons
Comments: Easy song to play but for some of it you have to be quick
in moving your fingers.This is not a detailed tab with every single note
in it so you'll have to improvise in some parts. I havnt labelled the
sections because EITS dont work in verse chorus verse approach so you'll just
have to listen and work it out GT1 and GT2 are not played at the same
time unless there is a note saying so.

Great band great song. Give it a rating!

Guitar 1: Standard tuning
Guitar 2: Drop D Dadgbe


The introduction is picked with your thumb and index finger. Give it loads
of reverb and a good amount of delay

GT1:
e--------------------------------------------------------------------------|
b--------------------------------------------------------------------------|
g--------------------------------------------------------------------------|
d--------------------------------------------------------------------------|
a--9----10---9-----7----9----10---9--let-----------------------------------|
e--7----0----10----9----7----0----10-ring----------------------------------|


e--------------------------------------------------------------------------|
b--------------------------------------------------------------------------|
g--------------------------------------------------------------------------|
d--------------------------------------------------------------------------|
a--9----10---9-----7----9----10---9--let-----------------------------------|
e--7----0----10----9----7----0----10-ring----------------------------------|


GT2: This part is repeated throught the slide guitar section of GT1
e--------------------------------------------------------------------------|
b--------------------------------------------------------------------------|
g--------------------------------------------------------------------------|
d-----0------0------0------0-------0------0------0------0------------------|
a---0--0---0--0---0--0---0--0----0--0---0--0---0--0---0--0-----------------|
d--0-0----5-5----4-4----4-4-----0-0----5-5----4-4----4-4-------------------|

e--------------------------------------------------------------------------|
b--------------------------------------------------------------------------|
g--------------------------------------------------------------------------|
d-----0--------0--------0------0--0-----0--------0--------0----------------|
a---0--0----0---0----0---0----0--0----0--0----0---0----0---0--10-----------|
d--9-9----11-11----14-14----12-11----9-9----11-11----14-14-----------------|

GT1:
e--------------------------------------------------------------------------|
b--------------------------------------------------------------------------|
g--9--9-9--7--7-7--6--6-6--6--6-6----9--9-9--7--7-7--6--6-6--6--6-6--------|
d--------------------------------------------------------------------------|
a--------------------------------------------------------------------------|
e--------------------------------------------------------------------------|

e--------------------------------------------------------------------------|
b--------------------------------------------------------------------------|
g--7--7-7--9--9-9--6--6-6--7--7-7----7--7-7--9--9-9--6--6-6--2 let ring----|
d--------------------------------------------------------------------------|
a--------------------------------------------------------------------------|
e--------------------------------------------------------------------------|

e--------------------------------------------------------------------------|
b--10--10-10--8--8-8--7--7-7--7--7-7-7--10--10-10--8--8-8--7--7-7--7-7-7---|
g--------------------------------------------------------------------------|
d--------------------------------------------------------------------------|
a--------------------------------------------------------------------------|
e--------------------------------------------------------------------------|

e---------------------------------------------------------------------------|
b--5s-7-7-7s--10-10s-7-7-7s-8-8s-7-7-7--5s-7-7-7s--10-10s-7-7-7s-8-8s-7-7-7-|
g---------------------------------------------------------------------------|
d---------------------------------------------------------------------------|
a---------------------------------------------------------------------------|
e---------------------------------------------------------------------------|

GT2:
e----5-------5----------5-------5------------------------------------------|
b-----5-------5----------5-------5-----------------------------------------|
g-----------------6-------------------6------------------------------------|
d--0---0-0-0---0------0---0-0-0---0----------------------------------------|
a--------------------------------------------------------------------------|
d-----------------4v------------------4v-----------------------------------|

GT1:
e---------------------------------------------------------------------------|
b--5s-7-7-7s--10-10s-7-7-7s-8-8s-7-7-7--5s-7-7-7s--10-10s-7-7-7s-8-8s-7-7-7-|
g---------------------------------------------------------------------------|
d---------------------------------------------------------------------------|
a---------------------------------------------------------------------------|
e---------------------------------------------------------------------------|


GT2:
e----5-------5----------5-------5------------------------------------------|
b-----5-------5----------5-------5-----------------------------------------|
g-----------------6-------------------6------------------------------------|
d--0---0-0-0---0------0---0-0-0---0----------------------------------------|
a--------------------------------------------------------------------------|
d-----------------4v------------------4v-----------------------------------|

e--------------------------------------------------------------------------|
b--------------------------------------------------------------------------|
g--7--7s9-9s--6-------------------7--7s9-9s--6-----------------------------|
d--0--0-------0-------------------0--0-------0-----------------------------|
a-----0------------------------------0-------------------------------------|
d-------------4---12-11----------------------4---12-11---------------------|

e----5--------5----------5------5--------5----------------5----------------|
b------5--------5s7---8---------5----------5s-7--8--8--8-------------------|
g--------------------------------------------------------------------------|
d--0-------0------------------0--------0-----------------------------------|
a--------------------------------------------------------------------------|
d-----------------4---------------------------4----------------------------|

e----5--------5----------5------5--------5---------------------------------|
b------5--------5s7---8---------5----------5s-7--8--8--8-------------------|
g-----------------------------------------------------------9s-7-6---------|
d--0-------0------------------0--------0-----------------------------------|
a--------------------------------------------------------------------------|
d-----------------4---------------------------4----------------------------|

GT1:
e--------------------------------------------------------------------------|
b--10--10-10--8--8-8--7--7-7--7--7-7-7--10--10-10--8--8-8--7--7-7--7-7-7---|
g--------------------------------------------------------------------------|
d--------------------------------------------------------------------------|
a--------------------------------------------------------------------------|
e--------------------------------------------------------------------------|

e---------------------------------------------------------------------------|
b--5s-7-7-7s--10-10s-7-7-7s-8-8s-7-7-7--5s-7-7-7s--10-10s-7-7-7s-8-8s-7-7-7-|
g---------------------------------------------------------------------------|
d---------------------------------------------------------------------------|
a---------------------------------------------------------------------------|
e---------------------------------------------------------------------------|

GT2:
e----5-------5----------5-------5------------------------------------------|
b-----5-------5----------5-------5-----------------------------------------|
g-----------------6-------------------6------------------------------------|
d--0---0-0-0---0------0---0-0-0---0----------------------------------------|
a--------------------------------------------------------------------------|
d-----------------4v------------------4v-----------------------------------|

e----5-------5----------5-------5------------------------------------------|
b-----5-------5----------5-------5-----------------------------------------|
g-----------------6-------------------6------------------------------------|
d--0---0-0-0---0------0---0-0-0---0----------------------------------------|
a--------------------------------------------------------------------------|
d-----------------4v------------------4v-----------------------------------|

GT1:
e--------------------------------------------------------------------------|
b--------------------------------------------------------------------------|
g--------------------------------------------------------------------------|
d--------------------------------------------------------------------------|
a--------------------------------------------------------------------------|
e---pick scrape------------------------------------------------------------|

Please rate!!
Добавлено: 13.03.2012
Другие материалы по этой песне:
  • Аккорды и текст

Страница создана 13.03.2012
http://primanota.ru/explosions-in-the-sky/remember-me-as-a-time-of-day-chords.htm
Привет, Гость.
Предлагаем пройти революционный курс по гитаре.
Подарок от PrimaNota.Ru, забирай!