PrimaNota.ru - самый крупный в мире бесплатный архив песенных текстов, аккордов, табулатур и нот


Emigrate - You Cant Get Enough - текст песни, таба, видео

Регистрация Запомнить меня
Войти через:  Facebook Google Twitter Vk Yandex Mail.ru

Emigrate - You Cant Get Enough - текст песни, таба, видео

Печатать
Просмотров: 313
You Cant Get Enough by emigrate by zerstören

beautiful song by emigrate

the guitar is tuned drop c (C,G,C,F,A,D.)


intro
D|--5-7-8-7-5-8-10-5-3-5-7-8-7-5-8-10-5-3-----------|
A|--------------------------------------------------|
F|--------------------------------------------------|
C|--------------------------------------------------|
G|--------------------------------------------------|
C|--------------------------------------------------|


verse

D|--------------------------------------------|
A|--------------------------------------------|
F|--------------------------------------------|
C|-7---7--7-7--/--3----3--3-3--/--12--12------|
G|-7---7--7-7--/--3----3--3-3--/--12--12------|
C|-7---7--7-7--/--3----3--3-3--/--12--12------|

D|----------------------------------------------|
A|----------------------------------------------|
F|----------------------------------------------|
C|-7---7--7-7-7-7---/-12---12--12-12--\-10--10--|
G|-7---7--7-7-7-7---/-12---12--12-12--\-10--10--|
C|-7---7--7-7-7-7---/-12---12--12-12--\-10--10--|  X2

 pre-chorus


D|-----------------------------------------/
A|-----------------------------------------/
F|-----------------------------------------/
C|--5---5--5-5-5-5---\-3---3--3-3--/-7--7--/
G|--5---5--5-5-5-5---\-3---3--3-3--/-7--7--/
C|--5---5--5-5-5-5---\-3---3--3-3--/-7--7--/

D|------------------------|
A|------------------------|
F|------------------------|
C|--5---5--5-5-5-5---\-3--|
G|--5---5--5-5-5-5---\-3--|
C|--5---5--5-5-5-5---\-3--| X1

2nd guitar (prechorus)

D|--7-5-10-12-10-8-7-7h8p7-5--12-------------------|
A|-------------------------------------------------|
F|-------------------------------------------------|
C|-------------------------------------------------|
G|-------------------------------------------------|
C|-------------------------------------------------|


chorus

D|--------------------------------------------|
A|--------------------------------------------|
F|--------------------------------------------|
C|-7---7--7-7--/--3----3--3-3--/--12--12------|
G|-7---7--7-7--/--3----3--3-3--/--12--12------|
C|-7---7--7-7--/--3----3--3-3--/--12--12------|


D|----------------------------------------------|
A|----------------------------------------------|
F|----------------------------------------------|
C|-7---7--7-7-7-7---/-12---12--12-12--\-10--10--|
G|-7---7--7-7-7-7---/-12---12--12-12--\-10--10--|
C|-7---7--7-7-7-7---/-12---12--12-12--\-10--10--| X2

2nd guitar (chorus)
D|--5-7-8-7-5-8-10-5-3-5-7-8-7-5-8-10-5-3-------|
A|----------------------------------------------|
F|----------------------------------------------|
C|----------------------------------------------|
G|----------------------------------------------|
C|----------------------------------------------| X4


verse

D|--------------------------------------------|
A|--------------------------------------------|
F|--------------------------------------------|
C|-7---7--7-7--/--3----3--3-3--/--12--12------|
G|-7---7--7-7--/--3----3--3-3--/--12--12------|
C|-7---7--7-7--/--3----3--3-3--/--12--12------|

D|----------------------------------------------|
A|----------------------------------------------|
F|----------------------------------------------|
C|-7---7--7-7-7-7---/-12---12--12-12--\-10--10--|
G|-7---7--7-7-7-7---/-12---12--12-12--\-10--10--|
C|-7---7--7-7-7-7---/-12---12--12-12--\-10--10--|  X2

 pre-chorus


D|-----------------------------------------/
A|-----------------------------------------/
F|-----------------------------------------/
C|--5---5--5-5-5-5---\-3---3--3-3--/-7--7--/
G|--5---5--5-5-5-5---\-3---3--3-3--/-7--7--/
C|--5---5--5-5-5-5---\-3---3--3-3--/-7--7--/

D|------------------------/
A|------------------------/
F|------------------------/
C|--5---5--5-5-5-5---\-3--/
G|--5---5--5-5-5-5---\-3--/
C|--5---5--5-5-5-5---\-3--/ X1

2nd guitar (prechorus)

D|--7-5-10-12-10-8-7-7h8p7-5--12-------------------|
A|-------------------------------------------------|
F|-------------------------------------------------|
C|-------------------------------------------------|
G|-------------------------------------------------|
C|-------------------------------------------------|


chorus

D|--------------------------------------------|
A|--------------------------------------------|
F|--------------------------------------------|
C|-7---7--7-7--/--3----3--3-3--/--12--12------|
G|-7---7--7-7--/--3----3--3-3--/--12--12------|
C|-7---7--7-7--/--3----3--3-3--/--12--12------|

                                                       after 2nd time
D|----------------------------------------------|-------|
A|----------------------------------------------|-------|
F|----------------------------------------------|-------|
C|-7---7--7-7-7-7---/-12---12--12-12--\-10--10--|--(7)--|
G|-7---7--7-7-7-7---/-12---12--12-12--\-10--10--|--(7)--|
C|-7---7--7-7-7-7---/-12---12--12-12--\-10--10--|--(7)--| X2

2nd guitar (chorus)
D|--5-7-8-7-5-8-10-5-3-5-7-8-7-5-8-10-5-3-------|
A|----------------------------------------------|
F|----------------------------------------------|
C|----------------------------------------------|
G|----------------------------------------------|
C|----------------------------------------------| X4

solo

D|--8-5--8-8/12-8--12-12/15-12--15-15/17~-8-5-12-10-5-/-17-10--8-8h10-|
A|--------------------------------------------------------------------|
F|--------------------------------------------------------------------|
C|--------------------------------------------------------------------|
G|--------------------------------------------------------------------|
C|--------------------------------------------------------------------|

D|---------------------5-----5-----8-5-12-10-5-/-17-10--8-8h10~--|
A|-6-8-6-5-3-1-3-5---3-----3---3---------------------------------|
F|-----------------5-----5-------5-------------------------------|
C|---------------------------------------------------------------|
G|---------------------------------------------------------------|
C|---------------------------------------------------------------|

2nd guitar (solo) 2.47 min

D|----------------------------------------------|
A|----------------------------------------------|
F|----------------------------------------------|
C|-7---7--7-7-7-7---/-12---12--12-12--\-10--10--|
G|-7---7--7-7-7-7---/-12---12--12-12--\-10--10--|
C|-7---7--7-7-7-7---/-12---12--12-12--\-10--10--|


chorus

D|--------------------------------------------|
A|--------------------------------------------|
F|--------------------------------------------|
C|-7---7--7-7--/--3----3--3-3--/--12--12------|
G|-7---7--7-7--/--3----3--3-3--/--12--12------|
C|-7---7--7-7--/--3----3--3-3--/--12--12------|


D|----------------------------------------------|
A|----------------------------------------------|
F|----------------------------------------------|
C|-7---7--7-7-7-7---/-12---12--12-12--\-10--10--|
G|-7---7--7-7-7-7---/-12---12--12-12--\-10--10--|
C|-7---7--7-7-7-7---/-12---12--12-12--\-10--10--| X3


Final Chorus
D|-------------------------------------------|
A|-------------------------------------------|
F|-------------------------------------------|
C|--7---7--7-7-7-7---\-3---3--3-3--/-10--10--|
G|--7---7--7-7-7-7---\-3---3--3-3--/-10--10--|
C|--7---7--7-7-7-7---\-3---3--3-3--/-10--10--|


D|------------------------------------------------------------------|
A|------------------------------------------------------------------|
F|------------------------------------------------------------------|
C|-7---7--7-7-7-7---/-12---12--12-12--\-10--10-------------|---(7)--|
G|-7---7--7-7-7-7---/-12---12--12-12--\-10--10-------------|---(7)--|
C|-7---7--7-7-7-7---/-12---12--12-12--\-10--10-------------|---(7)--|

IT'S ALL
ENOJOY IT AND RATE IT!
Добавлено: 04.08.2013
Другие материалы по этой песне:
  • Аккорды и текст

Страница создана 04.08.2013
http://primanota.ru/emigrate/you-cant-get-enough-chords.htm
Привет, Гость.
Предлагаем пройти революционный курс по гитаре.
Подарок от PrimaNota.Ru, забирай!