PrimaNota.ru - самый крупный в мире бесплатный архив песенных текстов, аккордов, табулатур и нот


Emigrate - Face Down - текст песни, таба, видео

Регистрация Запомнить меня
Войти через:  Facebook Google Twitter Vk Yandex Mail.ru

Emigrate - Face Down - текст песни, таба, видео

Печатать
Просмотров: 442
-------------------------------------------------------------------------------
                               Face Down - Emigrate
-------------------------------------------------------------------------------
Tabbed by: Bee-Ay
Email: Leviathan_ben@hotmail.com

Tuning: C-G-C-F-A-D


This is heavy shit...

Opening riff:


Okay, this is difficult to explain...
As you might know, the 3.1*  ,   2.7*   and  5* are artificial harmonics.

To explain the 3.1* and 2.7* (as best as i can) do this:

3.1*:
Place you finger on the 3rd metal piece that indicates the frets,
and just place it 1mm to the "right" or down the fretboard/neck.

2.7*:
Its the same thing like the other harmonics.
For the "easy" way to say, you just have to move the finger 1 ince "up"
the fretboard/neck after the 3.1* parts is done.
So that your finger will apear JUST before the 3rd metal piece.

This is relly hard to explain. I hope this will make a bit sense. :)
By the way!: Enjoy.


D|-----------------------------------------------------------------------------------------|
A|-----------------------------------------------------------------------------------------|
F|-----------------------------------------------------------------------------------------|
C|-----------------------------------------------------------------------------------------|
G|-----------------------------------------------------------------------------------------|
C|-0--3.1*--0--3.1*--0--3.1*--0--3.1*--0-0--3.1*--0--3.1*--0--3.1*--0--3.1*--0--3.1*--2.7*-|


...

D|----------------------------------------------------------------------------------------------|
A|----------------------------------------------------------------------------------------------|
F|----------------------------------------------------------------------------------------------|
C|----------------------------------------------------------------------------------------------|
G|----------------------------------------------------------------------------------------------|
C|-0--3.1*--0--3.1*--0--3.1*--0--3.1*--0-0--3.1*--0--3.1*--0--3.1*--0--3.1*--0--3.1*--0-0--3.1*-|

D|-------------------------------------------------|
A|-------------------------------------------------|
F|-------------------------------------------------|
C|-------------------------------------------------|
G|-------------------------------------------------|
C|-0--3.1*--0--3.1*--0--3.1*--0--3.1*--5*-5*-5*-5*-|


And here we go:

D|--------------------------------------------------------------------|
A|--------------------------------------------------------------------|
F|--------------------------------------------------------------------|
C|-4h5p4-0--------------------------------8-8-8-8---10-10-10-10-12\\--|
G|-4h5p4-0---5-5-5-5---5-5-5-5---5-5-5-5--8-8-8-8---10-10-10-10-12\\--|
C|-4h5p4-0---0-0-0-0---0-0-0-0---0-0-0-0--8-8-8-8---10-10-10-10-12\\--|


D|-----------------------------------------------------------|
A|-----------------------------------------------------------|
F|-----------------------------------------------------------|
C|-4h5p4-0-------------------------------------8-------------|
G|-4h5p4-0---5-5-5-5---5-5-5-5---5-5-5-5---5-5-8-------------|
C|-4h5p4-0---0-0-0-0---0-0-0-0---0-0-0-0---0-0-8-------------|

D|--------------------------------------------------------------------|
A|--------------------------------------------------------------------|
F|--------------------------------------------------------------------|
C|-4h5p4-0--------------------------------8-8-8-8---10-10-10-10-12\\--|
G|-4h5p4-0---5-5-5-5---5-5-5-5---5-5-5-5--8-8-8-8---10-10-10-10-12\\--|
C|-4h5p4-0---0-0-0-0---0-0-0-0---0-0-0-0--8-8-8-8---10-10-10-10-12\\--|


D|-------------------------------------------|
A|-------------------------------------------|
F|-------------------------------------------|
C|-4h5p4-0-----------------------------------|
G|-4h5p4-0---5-5-5-5---5-5-5-5---5-5-5-5---5-|
C|-4h5p4-0---0-0-0-0---0-0-0-0---0-0-0-0---0-|


Verse Riff:

D|-----------------------------------------------------------------|
A|-----------------------------------------------------------------|
F|*----------------------------------------------------------------|
C|*-4h5-4h5/7----7---7----7---7----7---7----8---8----10---10/12\\--|
G|-----------------5--------5--------5-----------------------------|
C|-------------0--------0--------0--------0---0----0----0----------|

D|-----------------------------------------------|
A|-----------------------------------------------|
F|---------------------------------------------*-|
C|-4h5-4h5/7----7---7----7---7----7---7----7/8-*-|
G|----------------5--------5--------5------------|
C|------------0--------0--------0--------0-------|

Chorus:

D|-----------------------|-----------------------|-----------------------|--------------------|
A|-----------------------|-----------------------|-----------------------|--------------------|
F|-----------------------|-----------------------|-----------------------|--------------------|
C|-0-2-3-3-3--8-8-7-7-10-|-0-2-3-3-3--8-8-7-7-10-|-0-2-3-3-3--8-8-7-7-10-|-0-2-3-3-3--8-8-7-7-|
G|-0-2-3-3-3--8-8-7-7-10-|-0-2-3-3-3--8-8-7-7-10-|-0-2-3-3-3--8-8-7-7-10-|-0-2-3-3-3--8-8-7-7-|
C|-0-2-3-3-3--8-8-7-7-10-|-0-2-3-3-3--8-8-7-7-10-|-0-2-3-3-3--8-8-7-7-10-|-0-2-3-3-3--8-8-7-7-|


2. verse with changes/fills in end:
D|-----------------------------------------------------------------|
A|-----------------------------------------------------------------|
F|-----------------------------------------------------------------|
C|--4h5-4h5/7----7---7----7---7----7---7----8---8----10---10/12\\--|
G|-----------------5--------5--------5-----------------------------|
C|-------------0--------0--------0--------0---0----0----0----------|

D|----------------------------------------------|
A|----------------------------------------------|
F|----------------------------------------------|
C|-4h5-4h5/7----7---7----7---7----7---7----7/8--|
G|----------------5--------5--------5-----------|
C|------------0--------0--------0--------0------|

D|-----------------------------------------------------------------|
A|-----------------------------------------------------------------|
F|-----------------------------------------------------------------|
C|--4h5-4h5/7----7---7----7---7----7---7----8---8----10---10/12\\--|
G|-----------------5--------5--------5-----------------------------|
C|-------------0--------0--------0--------0---0----0----0----------|

D|----------------------------------------------|
A|----------------------------------------------|
F|----------------------------------------------|
C|-4h5-4h5/7----7---7----7---7----7---7----7/8--|
G|----------------5--------5--------5-----------|
C|------------0--------0--------0--------0------|

D|-----------------------------------------------------------------|
A|-----------------------------------------------------------------|
F|-------------------5--------5--------5---------------------------|
C|--4h5-4h5/7----7--------7--------7--------8---8----10---10/12\\--|
G|-----------------5--------5--------5-----------------------------|
C|-------------0--------0--------0--------0---0----0----0----------|

D|----------------------------------------------|
A|----------------------------------------------|
F|------------------5--------5--------5---------|
C|-4h5-4h5/7----7--------7--------7--------7/8--|
G|----------------5--------5--------5-----------|
C|------------0--------0--------0--------0------|

Bridge:

D|--------------------------------------------------------|
A|--------------------------------------------------------|
F|--------------------------------------------------------|
C|--------------------------------------------------------|
G|-----------------------------------------------<5>~~----|
C|-0-3--0-3--0-3--0-3-----0-3--0-3--0-3--0-3-5-0----------|

D|--------------------------------------------------------|
A|--------------------------------------------------------|
F|--------------------------------------------------------|
C|--------------------------------------------------------|
G|-----------------------------------------------<3>~~----|
C|--0-3--0-3--0-3--0-3----0-3--0-3--0-3--0-3-5-0----------|

[ Solo ]

We got 3 guitars in this solo....
The 3. guitar is Harmonized to the 2. guitar.

Guitar 1: Chorus (rythm)

D|-------------------------|
A|-------------------------|
F|*-----------------------*|
C|*-0-2-3-3-3--8-8-7-7-10-*|
G|--0-2-3-3-3--8-8-7-7-10--|
C|--0-2-3-3-3--8-8-7-7-10--|


Guitar 2:

D|----------------------------------------------------------------------------------------------|
A|----------------------------------------------------------------------------------------------|
F|*-10~--10~--10~--10~--10~--7~--7~--9~--9~--12~--10~--10~--10~--10~--10~--7~--7~--5~--5~--12~-*|
C|*--------------------------------------------------------------------------------------------*|
G|----------------------------------------------------------------------------------------------|
C|----------------------------------------------------------------------------------------------|


And guitar 3 kicks in 2. time:
D|------------------------------------------------------------------------------------------------|
A|-10~--10~--10~--10~--10~--8~--8~--10~--10~--13~--10~--10~--10~--10~--10~--8~--8~--5~--5~-/15b16-|
F|------------------------------------------------------------------------------------------------|
C|------------------------------------------------------------------------------------------------|
G|------------------------------------------------------------------------------------------------|
C|------------------------------------------------------------------------------------------------|


Thats it? All riffs are here. Where to play them, is up to you to find out :D
Добавлено: 28.12.2013
Другие материалы по этой песне:
  • Аккорды и текст

Страница создана 28.12.2013
http://primanota.ru/emigrate/face-down-chords.htm
Привет, Гость.
Предлагаем пройти революционный курс по гитаре.
Подарок от PrimaNota.Ru, забирай!