PrimaNota.ru - самый крупный в мире бесплатный архив песенных текстов, аккордов, табулатур и нот


Emigrate - Temptation - текст песни, таба, видео

Регистрация Запомнить меня
Войти через:  Facebook Google Twitter Vk Yandex Mail.ru

Emigrate - Temptation - текст песни, таба, видео

Печатать
Просмотров: 436
<<>>

Tabbed by: AlexMeister
E-mail: mclarenf1zaemon@hotmail.com

Dropped C Tuning C,G,C,F,A,D

* = harmonic (natural)
+ = let rig
> = (whammy)down pedal
~ = vibrato

Intro - Clean - 20% chorus 50% rerverb

Gtr 1
D|------------------------------------------------------------------|
A|------------------------------------------------------------------|
F|------2----2----------2-----2-------------------------------------|
C|----0--------0----------0-----0--------7----7----------7---7------|x2
G|-------------------------------------4---4----4----------4---4----|
C|--0------0-----0--0-0-----0-----0--4-------4----4--4-4-----4---4--|

D|------------------------------------------------------------------|
A|------------------------------------------------------------------|
F|------0-----0----------0---0--------------------------------------|
C|----0---0-----0----------0---0--------4---4----------4----4-------|
G|--2-------2-----2--2-2-----2---2----4---4---4----------4----4-----|
C|----------------------------------4-------4---4--4-4-----4----4---|

After
D|------------------------------------------------------------------|
A|------------------------------------------------------------------|
F|------------------------------------------------------------------|
C|------5---5----------5---5----------4---4----------4---4----------|
G|----5---5---5----------5---5------4---4---4----------4---4--------|
C|--5-------5---5--5-5-----5---5--4-------4---4--4-4-----4---4------|


(Fade-in harmonic) Main Riff and chorus
Gtr 1&2
D|--------------|  |------------------------------------------------|
A|--------------|  |------------------------------------------------|
F|--------------|  |--4-4-4-4-4-4-4-7-7-7-7-7-7-7-------------------|
C|--5*++++++++--|  |--4-4-4-4-4-4-4-7-7-7-7-7-7-7-7-7-7-7-7-7-7-2-2-|
G|--------------|  |--2-2-2-2-2-2-2-5-5-5-5-5-5-5-7-7-7-7-7-7-7-2-2-|
C|--------------|  |------------------------------7-7-7-7-7-7-7-2-2-|

|-------------------------------------------------------------------|
|-------------------------------------------------------------------|
|-----------4-4-4-4-4-4-4-7-7-7-7-7-7-7-----------------------------|
|-2-2-2-2-2-4-4-4-4-4-4-4-7-7-7-7-7-7-7-5-5-5-5-5-5-5-2-2-2-2-2-2-2-|
|-2-2-2-2-2-2-2-2-2-2-2-2-5-5-5-5-5-5-5-5-5-5-5-5-5-5-2-2-2-2-2-2-2-|
|-2-2-2-2-2-----------------------------5-5-5-5-5-5-5-2-2-2-2-2-2-2-|

Clean part

Gtr 1
D|----------------------------------------|
A|----------------------------------------|
F|------2----2----------2-----2-----------|
C|----0--------0----------0-----0---------|x4
G|----------------------------------------|
C|--0------0-----0--0-0-----0-----0--0-0--|

D|------------------------------------------------------------------|
A|------------------------------------------------------------------|
F|------0-----0----------0---0--------------------------------------|
C|----0---0-----0----------0---0--------4---4----------4----4-------|
G|--2-------2-----2--2-2-----2---2----4---4---4----------4----4-----|
C|----------------------------------4-------4---4--4-4-----4----4---|

D|------------------------------------------------------------------|
A|------------------------------------------------------------------|
F|------------------------------------------------------------------|
C|------5---5----------5---5----------4---4----------4---4----------|
G|----5---5---5----------5---5------4---4---4----------4---4--------|
C|--5-------5---5--5-5-----5---5--4-------4---4--4-4-----4---4------|

Chorus

Gtr 1&2
D|--------------|  |------------------------------------------------|
A|--------------|  |------------------------------------------------|
F|--------------|  |--4-4-4-4-4-4-4-7-7-7-7-7-7-7-------------------|
C|--5*++++++++--|  |--4-4-4-4-4-4-4-7-7-7-7-7-7-7-7-7-7-7-7-7-7-2-2-|
G|--------------|  |--2-2-2-2-2-2-2-5-5-5-5-5-5-5-7-7-7-7-7-7-7-2-2-|
C|--------------|  |------------------------------7-7-7-7-7-7-7-2-2-|

|-------------------------------------------------------------------|
|-------------------------------------------------------------------|
|-----------4-4-4-4-4-4-4-7-7-7-7-7-7-7-----------------------------|
|-2-2-2-2-2-4-4-4-4-4-4-4-7-7-7-7-7-7-7-5-5-5-5-5-5-5-2-2-2-2-2-2-2-|x2
|-2-2-2-2-2-2-2-2-2-2-2-2-5-5-5-5-5-5-5-5-5-5-5-5-5-5-2-2-2-2-2-2-2-|
|-2-2-2-2-2-----------------------------5-5-5-5-5-5-5-2-2-2-2-2-2-2-|

Solo in the riff(Whammy pedal)
(fade-in)   Gtr 1
D|---------||------------------------------------------|
A|---------||------------------------------------------|
F|--9>>>>>-||--4++++-14+-11+-9+-11+-5++++/9+-11+-9+-3+-|
C|--X------||------------------------------------------|X4
G|--7>>>>>-||--2++++-12+--9+-7+--9+-7++++/7+--9+-7+-5+-|
C|---------||------------------------------------------|

In the solo

Gtr 2
D|------------------------------------------------------------------|
A|------------------------------------------------------------------|
F|------------------------------------------------------------------|
C|--9-9-9-9-9-9-9-12-12-12-12-12-12-12-7-7-7-7-7-7-7-9-9-9-9-9-9-9--|
G|--9-9-9-9-9-9-9-12-12-12-12-12-12-12-7-7-7-7-7-7-7-9-9-9-9-9-9-9--|
C|--9-9-9-9-9-9-9-12-12-12-12-12-12-12-7-7-7-7-7-7-7-9-9-9-9-9-9-9--|

D|------------------------------------------------------------------|
A|------------------------------------------------------------------|
F|------------------------------------------------------------------|
C|--9-9-9-9-9-9-9-12-12-12-12-12-12-12-7-7-7-7-7-7-7-2-2-2-2-2-2-2--|x2
G|--9-9-9-9-9-9-9-12-12-12-12-12-12-12-7-7-7-7-7-7-7-2-2-2-2-2-2-2--|
C|--9-9-9-9-9-9-9-12-12-12-12-12-12-12-7-7-7-7-7-7-7-2-2-2-2-2-2-2--|

Let Ring 

Gtr1    Gtr2
D|-----||-----|
A|-----||-----|
F|--4~-||-----|
C|-----||--5--|
G|--2~-||--5--|
C|-----||--5--|

Bridge (whammy pedal,good control)

Gtr 1
D|----------------------------------------------------------------|
A|----------------------------------------------------------------|
F|----------------------------------------------------------------|
C|--<0<0<0<0<0-0-0-0-0-0-0-0-0-0-0-4-4-4-4-4-4-4<4<4<4<4<4<4<4<4--|x2
G|----------------------------------------------------------------|
C|----------------------------------------------------------------|

D|----------------------------------------------------------------|
A|----------------------------------------------------------------|
F|----------------------------------------------------------------|
C|----------------------------------------------------------------|
G|--<7<7<7<7<7-7-7-7-7-7-7-7-7-7-7--------------------------------|
C|---------------------------------5-5-5-5-5-5-5<5<5<5<5<5<5<5<5--|

D|----------------------------------------------------------------|
A|----------------------------------------------------------------|
F|----------------------------------------------------------------|
C|----------------------------------------------------------------|
G|----------------------------------------------------------------|
C|--<7<7<7<7<7-7-7-7-7-7-7-7-7-7-7-2-2-2-2-2-2-2<2<2<2<2<2<2<2<2--|

Chorus

Gtr 1&2
D|-----------------------------------------------------------|
A|-----------------------------------------------------------|
F|--4-4-4-4-4-4-4-7-7-7-7-7-7-7------------------------------|
C|--4-4-4-4-4-4-4-7-7-7-7-7-7-7-7-7-7-7-7-7-7-2-2-2-2-2-2-2--|
G|--2-2-2-2-2-2-2-5-5-5-5-5-5-5-7-7-7-7-7-7-7-2-2-2-2-2-2-2--|
C|------------------------------7-7-7-7-7-7-7-2-2-2-2-2-2-2--|

|-----------------------------------------------------------|
|-----------------------------------------------------------|
|--4-4-4-4-4-4-4-7-7-7-7-7-7-7------------------------------|
|--4-4-4-4-4-4-4-7-7-7-7-7-7-7-5-5-5-5-5-5-5-2-2-2-2-2-2-2--|x2
|--2-2-2-2-2-2-2-5-5-5-5-5-5-5-5-5-5-5-5-5-5-2-2-2-2-2-2-2--|
|------------------------------5-5-5-5-5-5-5-2-2-2-2-2-2-2--|

Solo(Whammy pedal)
(fade-in)   Gtr 1
D|------------------------------------------|
A|------------------------------------------|
F|--4++++-14+-11+-9+-11+-5++++/9+-11+-9+-3+-|
C|------------------------------------------|X4
G|--2++++-12+--9+-7+--9+-7++++/7+--9+-7+-5+-|
C|------------------------------------------|

In the solo

Gtr 2
D|------------------------------------------------------------------|
A|------------------------------------------------------------------|
F|------------------------------------------------------------------|
C|--9-9-9-9-9-9-9-12-12-12-12-12-12-12-7-7-7-7-7-7-7-9-9-9-9-9-9-9--|
G|--9-9-9-9-9-9-9-12-12-12-12-12-12-12-7-7-7-7-7-7-7-9-9-9-9-9-9-9--|
C|--9-9-9-9-9-9-9-12-12-12-12-12-12-12-7-7-7-7-7-7-7-9-9-9-9-9-9-9--|

D|------------------------------------------------------------------|
A|------------------------------------------------------------------|
F|------------------------------------------------------------------|
C|--9-9-9-9-9-9-9-12-12-12-12-12-12-12-7-7-7-7-7-7-7-2-2-2-2-2-2-2--|x2
G|--9-9-9-9-9-9-9-12-12-12-12-12-12-12-7-7-7-7-7-7-7-2-2-2-2-2-2-2--|
C|--9-9-9-9-9-9-9-12-12-12-12-12-12-12-7-7-7-7-7-7-7-2-2-2-2-2-2-2--|

End

Gtr1    Gtr2
D|-----||-----|
A|-----||-----|
F|--4--||-----|
C|-----||--5--|(let rig in the Gtr2)
G|--2--||--5--|
C|-----||--5--|

Awesome song!enjoy it =D

Tab difficulty : Novice +++
Добавлено: 17.08.2013
Другие материалы по этой песне:

Страница создана 14.06.2012
http://primanota.ru/emigrate/temptation-chords.htm
Привет, Гость.
Предлагаем пройти революционный курс по гитаре.
Подарок от PrimaNota.Ru, забирай!