PrimaNota.ru - самый крупный в мире бесплатный архив песенных текстов, аккордов, табулатур и нот


Emigrate - New York City - текст песни, таба, бас-таба, видео

Регистрация Запомнить меня
Войти через:  Facebook Google Twitter Vk Yandex Mail.ru

Emigrate - New York City - текст песни, таба, бас-таба, видео

Печатать
Просмотров: 604
Уроки эстрадного вокала в Санкт-Петербурге
Artist: Emigrate
Song: New York City
Album: Emigrate / New York City Single / Temptation Single
Tabbed by: Rammkopf and me

Drop C

D|--------------------------------------------------------------------|
A|--------------------------------------------------------------------|
F|--10b12--10b12--10b12--10b12--10b12--10b12--10b12r10p8---10--8~-----|
C|--10b12-------------------------------------------------------------|
G|--------------------------------------------------------------------|
C|--------------------------------------------------------------------|

D|---------------------8--------------------------------|
A|-------------------8----------------------------------|
F|------8---10b12r10------10b12r10p8--10--8b10r8--------|
C|--10--------------------------------------------10~---|
G|------------------------------------------------------|
C|------------------------------------------------------|

D|------------------------------------------------------|
A|--18b20-r19-b20-r19-b20-r19r18p16----18---------------|
F|----------------------------------17----17---/5~------|
C|------------------------------------------------------|
G|------------------------------------------------------|
C|------------------------------------------------------|

D|--18b20-18b20-18b20r18p15--18b20-~~~~~~~--------------|
A|------------------------------------------------------|
F|------------------------------------------------------|
C|------------------------------------------------------|
G|------------------------------------------------------|
C|------------------------------------------------------|

Rhythm ----> Chorus


have fun ;)

Добавлено: 17.11.2013
Другие материалы по этой песне:

Страница создана 28.02.2012
http://primanota.ru/emigrate/new-york-city-chords.htm
Привет, Гость.
Предлагаем пройти революционный курс по гитаре.
Подарок от PrimaNota.Ru, забирай!