PrimaNota.ru - самый крупный в мире бесплатный архив песенных текстов, аккордов, табулатур и нот


Emigrate - In My Tears - текст песни, таба, видео

Регистрация Запомнить меня
Войти через:  Facebook Google Twitter Vk Yandex Mail.ru

Emigrate - In My Tears - текст песни, таба, видео

Печатать
Просмотров: 465
Artist:   Emigrate
Song:     In My Tears
Album:    Emigrate
Tuning:   Drop D

This is the way i play "In My Tears" everythings 
accurate but im not sure about the "Clean Guitar"
parts this is a fun song to learn, Enjoy playing.

Clean Guitar
|-------5-------5-----|-------5-------5-----|
|-----5---5---5---5---|-----5---5---5---5---|
|---------------------|---------------------|
|---------------------|---------------------|
|---5-------5---------|---4-------4---------|
|---------------------|---------------------|

|-------5-------5-----|-------5-------5-----|
|-----5---5---5---5---|-----5---5---5---5---|
|---------------------|---------------------|
|---------------------|---------------------|
|---3-------3---------|---2-------2---------|
|---------------------|---------------------|

|-------5-------5-----|-------5-------5-----|
|-----5---5---5---5---|-----5---5---5---5---|
|---------------------|---------------------|
|---------------------|---------------------|
|---5-------5---------|---4-------4---------|
|---------------------|---------------------|

|-------5-------5-----|-------5-------5-----|
|-----5---5---5---5---|-----5---5---5---5---|
|---------------------|---------------------|
|---------------------|---------------------|
|---3-------3---------|---2-------2---------|
|---------------------|---------------------|

Distortion
|-------------|
|-------------|
|-------------|
|---0h3-0h3---|
|---0h3-0h3---|
|---0h3-0h3---|


|-------5-------5-----|-------5-------5-----|
|-----5---5---5---5---|-----5---5---5---5---|
|---------------------|---------------------|
|---------------------|---------------------|
|---5-------5---------|---4-------4---------|
|---------------------|---------------------|

|-------5-------5-----|-------5-------5-----|
|-----5---5---5---5---|-----5---5---5---5---|
|---------------------|---------------------|
|---------------------|---------------------|
|---3-------3---------|---2-------2---------|
|---------------------|---------------------|

|-------------|
|-------------|
|-------------|
|---0h3-0h3---|
|---0h3-0h3---|
|---0h3-0h3---|

Riff 1:
|-------------------------------------------------------|
|-------------------------------------------------------|
|-------------------------------------------------------|
|---12--12---12-12-12-12-12---11--11---11-11-11-11-11---|
|---12--12---12-x--12-x--12---11--11---11-x--11-x--11---|
|---12--12---12-12-12-12-12---11--11---11-11-11-11-11---|

|---------------------------------------------------|
|---------------------------------------------------|
|---------------------------------------------------|
|---10--10---10-10-10-10-10---9--9---9-9--0h3-0h3---|
|---10--10---10-x--10-x--10---9--9---9-x--0h3-0h3---|
|---10--10---10-10-10-10-10---9--9---9-9--0h3-0h3---|


|-------5-------5-----|-------5-------5-----|
|-----5---5---5---5---|-----5---5---5---5---|
|---------------------|---------------------|
|---------------------|---------------------|
|---5-------5---------|---4-------4---------|
|---------------------|---------------------|

|-------5-------5-----|-------5-------5-----|
|-----5---5---5---5---|-----5---5---5---5---|
|---------------------|---------------------|
|---------------------|---------------------|
|---3-------3---------|---2-------2---------|
|---------------------|---------------------|

|-------------|
|-------------|
|-------------|
|---0h3-0h3---|
|---0h3-0h3---|
|---0h3-0h3---|


|-------5-------5-----|-------5-------5-----|
|-----5---5---5---5---|-----5---5---5---5---|
|---------------------|---------------------|
|---------------------|---------------------|
|---5-------5---------|---4-------4---------|
|---------------------|---------------------|

|-------5-------5-----|-------5-------5-----|
|-----5---5---5---5---|-----5---5---5---5---|
|---------------------|---------------------|
|---------------------|---------------------|
|---3-------3---------|---2-------2---------|
|---------------------|---------------------|

|-------------|
|-------------|
|-------------|
|---0h3-0h3---|
|---0h3-0h3---|
|---0h3-0h3---|

|-------5-----|
|-----5---5---|
|-------------|
|-------------|
|---5---------|
|-------------|

Riff 2:
|------------------------------------------------|
|------------------------------------------------|
|------------------------------------------------|
|---12-0-0--12-0-0--12-0-0--12-0-0--12-0--12-0---|
|---12-0-0--12-0-0--12-0-0--12-0-0--12-0--12-0---|
|---12-0-0--12-0-0--12-0-0--12-0-0--12-0--12-0---|

|-------------------------------------------|
|-------------------------------------------|
|-------------------------------------------|
|---10-8-8--10-8-8--10-8--7-7-7-7-9-7-7-7---|
|---10-8-8--10-8-8--10-8--7-7-7-7-9-7-7-7---|
|---10-8-8--10-8-8--10-8--7-7-7-7-9-7-7-7---|

|------------------------------------------------|
|------------------------------------------------|
|------------------------------------------------|
|---12-0-0--12-0-0--12-0-0--12-0-0--12-0--12-0---|
|---12-0-0--12-0-0--12-0-0--12-0-0--12-0--12-0---|
|---12-0-0--12-0-0--12-0-0--12-0-0--12-0--12-0---|

|-------------------------------------------|
|-------------------------------------------|
|-------------------------------------------|
|---10-8-8--10-8-8--10-8--3-3-3-3-3-3-3-3---|
|---10-8-8--10-8-8--10-8--3-3-3-3-3-3-3-3---|
|---10-8-8--10-8-8--10-8--3-3-3-3-3-3-3-3---|

|------------------------------------------------|
|------------------------------------------------|
|------------------------------------------------|
|---12-0-0--12-0-0--12-0-0--12-0-0--12-0--12-0---|
|---12-0-0--12-0-0--12-0-0--12-0-0--12-0--12-0---|
|---12-0-0--12-0-0--12-0-0--12-0-0--12-0--12-0---|

|-------------------------------------------|
|-------------------------------------------|
|-------------------------------------------|
|---10-8-8--10-8-8--10-8--7-7-7-7-9-7-7-7---|
|---10-8-8--10-8-8--10-8--7-7-7-7-9-7-7-7---|
|---10-8-8--10-8-8--10-8--7-7-7-7-9-7-7-7---|

|------------------------------------------------|
|------------------------------------------------|
|------------------------------------------------|
|---12-0-0--12-0-0--12-0-0--12-0-0--12-0--12-0---|
|---12-0-0--12-0-0--12-0-0--12-0-0--12-0--12-0---|
|---12-0-0--12-0-0--12-0-0--12-0-0--12-0--12-0---|

|-------------------------------------------|
|-------------------------------------------|
|-------------------------------------------|
|---10-8-8--10-8-8--10-8--3-3-3-3-3-3-3-3---|
|---10-8-8--10-8-8--10-8--3-3-3-3-3-3-3-3---|
|---10-8-8--10-8-8--10-8--3-3-3-3-3-3-3-3---|

Solo:
|---17b-16b----------------------------------|
|-----------18b-17b-15b-17b------------------|
|----------------------------6b^-14~---/7~---|
|--------------------------------------------|
|--------------------------------------------|
|--------------------------------------------|

|------------------------------------|
|---18b-17b-15b-17b------------------|
|-------------------14b--14b^-/12~---|
|------------------------------------|
|------------------------------------|
|------------------------------------|

|---17b-16b----------------------------------|
|-----------18b-17b-15b-17b------------------|
|----------------------------6b^-14~---/7~---|
|--------------------------------------------|
|--------------------------------------------|
|--------------------------------------------|

|------------------------------------|
|---18b-17b-15b-17b------------------|
|-------------------14b--14b^-/12~---|
|------------------------------------|
|------------------------------------|
|------------------------------------|

Fill:
|-------5-----|
|-----5---5---|
|-------------|
|-------------|
|---5---------|
|-------------| 8x

|------------------------------------------------|
|------------------------------------------------|
|------------------------------------------------|
|---12-0-0--12-0-0--12-0-0--12-0-0--12-0--12-0---|
|---12-0-0--12-0-0--12-0-0--12-0-0--12-0--12-0---|
|---12-0-0--12-0-0--12-0-0--12-0-0--12-0--12-0---|

|-------------------------------------------|
|-------------------------------------------|
|-------------------------------------------|
|---10-8-8--10-8-8--10-8--7-7-7-7-9-7-7-7---|
|---10-8-8--10-8-8--10-8--7-7-7-7-9-7-7-7---|
|---10-8-8--10-8-8--10-8--7-7-7-7-9-7-7-7---|

|------------------------------------------------|
|------------------------------------------------|
|------------------------------------------------|
|---12-0-0--12-0-0--12-0-0--12-0-0--12-0--12-0---|
|---12-0-0--12-0-0--12-0-0--12-0-0--12-0--12-0---|
|---12-0-0--12-0-0--12-0-0--12-0-0--12-0--12-0---|

|-------------------------------------------|
|-------------------------------------------|
|-------------------------------------------|
|---10-8-8--10-8-8--10-8--3-3-3-3-3-3-3-3---|
|---10-8-8--10-8-8--10-8--3-3-3-3-3-3-3-3---|
|---10-8-8--10-8-8--10-8--3-3-3-3-3-3-3-3---|

|------------------------------------------------|
|------------------------------------------------|
|------------------------------------------------|
|---12-0-0--12-0-0--12-0-0--12-0-0--12-0--12-0---|
|---12-0-0--12-0-0--12-0-0--12-0-0--12-0--12-0---|
|---12-0-0--12-0-0--12-0-0--12-0-0--12-0--12-0---|

|-------------------------------------------|
|-------------------------------------------|
|-------------------------------------------|
|---10-8-8--10-8-8--10-8--7-7-7-7-9-7-7-7---|
|---10-8-8--10-8-8--10-8--7-7-7-7-9-7-7-7---|
|---10-8-8--10-8-8--10-8--7-7-7-7-9-7-7-7---|

|------------------------------------------------|
|------------------------------------------------|
|------------------------------------------------|
|---12-0-0--12-0-0--12-0-0--12-0-0--12-0--12-0---|
|---12-0-0--12-0-0--12-0-0--12-0-0--12-0--12-0---|
|---12-0-0--12-0-0--12-0-0--12-0-0--12-0--12-0---|

|-------------------------------------------|
|-------------------------------------------|
|-------------------------------------------|
|---10-8-8--10-8-8--10-8--3-3-3-3-3-3-3-3---|
|---10-8-8--10-8-8--10-8--3-3-3-3-3-3-3-3---|
|---10-8-8--10-8-8--10-8--3-3-3-3-3-3-3-3---|

|------------------------------------------------|
|------------------------------------------------|
|------------------------------------------------|
|---12-0-0--12-0-0--12-0-0--12-0-0--12-0--12-0---|
|---12-0-0--12-0-0--12-0-0--12-0-0--12-0--12-0---|
|---12-0-0--12-0-0--12-0-0--12-0-0--12-0--12-0---|

|-------------------------------------------|
|-------------------------------------------|
|-------------------------------------------|
|---10-8-8--10-8-8--10-8--7-7-7-7-9-7-7-7---|
|---10-8-8--10-8-8--10-8--7-7-7-7-9-7-7-7---|
|---10-8-8--10-8-8--10-8--7-7-7-7-9-7-7-7---|

|------------------------------------------------|
|------------------------------------------------|
|------------------------------------------------|
|---12-0-0--12-0-0--12-0-0--12-0-0--12-0--12-0---|
|---12-0-0--12-0-0--12-0-0--12-0-0--12-0--12-0---|
|---12-0-0--12-0-0--12-0-0--12-0-0--12-0--12-0---|

|-------------------------------------------|
|-------------------------------------------|
|-------------------------------------------|
|---10-8-8--10-8-8--10-8--3-3-3-3-3-3-3-3---|
|---10-8-8--10-8-8--10-8--3-3-3-3-3-3-3-3---|
|---10-8-8--10-8-8--10-8--3-3-3-3-3-3-3-3---|

Riff 3:
|------------------------------------------------|
|------------------------------------------------|
|------------------------------------------------|
|---12-0-0--12-0-0--12-0-0--12-0-0--12-0--12-0---|
|---12-0-0--12-0-0--12-0-0--12-0-0--12-0--12-0---|
|---12-0-0--12-0-0--12-0-0--12-0-0--12-0--12-0---|

|--------------------------------------------|
|--------------------------------------------|
|--------------------------------------------|
|---10-8-8--10-8-8--10-8---7-7-7-7-9-7-7-7---|
|---10-8-8--10-8-8--10-8---7-7-7-7-9-7-7-7---|
|---10-8-8--10-8-8--10-8---7-7-7-7-9-7-7-7---| 

|--------------------------------------------|
|--------------------------------------------|
|--------------------------------------------|
|---10-8-8--10-8-8--10-8---7-7-7-7-9-7-7-7---|
|---10-8-8--10-8-8--10-8---7-7-7-7-9-7-7-7---|
|---10-8-8--10-8-8--10-8---7-7-7-7-9-7-7-7---|

|--------------------------------------------|
|--------------------------------------------|
|--------------------------------------------|
|---10-8-8--10-8-8--10-8---7-7-7-7-9-7-7-7---|
|---10-8-8--10-8-8--10-8---7-7-7-7-9-7-7-7---|
|---10-8-8--10-8-8--10-8---7-7-7-7-9-7-7-7---|

|-------5-------5-----|-------5-------5-----|
|-----5---5---5---5---|-----5---5---5---5---|
|---------------------|---------------------|
|---------------------|---------------------|
|---5-------5---------|---4-------4---------|
|---------------------|---------------------|

|-------5-------5-----|-------5-------5-----|
|-----5---5---5---5---|-----5---5---5---5---|
|---------------------|---------------------|
|---------------------|---------------------|
|---3-------3---------|---2-------2---------|
|---------------------|---------------------|



Notation:

x = Up Strokes
\ = Slide
~ = Vibrato
b = Bend Down
^ = Bend Up   (Example you bend down first and 
without realeasing the bend you slowly bend up)
Добавлено: 14.10.2013
Другие материалы по этой песне:

Страница создана 13.07.2012
http://primanota.ru/emigrate/in-my-tears-chords.htm
Привет, Гость.
Предлагаем пройти революционный курс по гитаре.
Подарок от PrimaNota.Ru, забирай!