PrimaNota.ru - самый крупный в мире бесплатный архив песенных текстов, аккордов, табулатур и нот


Emigrate - Blood - текст песни, таба, видео

Регистрация Запомнить меня
Войти через:  Facebook Google Twitter Vk Yandex Mail.ru

Emigrate - Blood - текст песни, таба, видео

Печатать
Просмотров: 306
Artist: Emigrate
Song: Blood
Album: Emigrate / Limited Edition (2007)
Tabbed by: Rammkopf and me

Verse:

E|-------------------------------------------------------------------------|
B|---------------12-12~-12~-12~-12~-12~-12/17-17~-12~-12~-12~-12~----------|
G|--------7*--7*-------------------------------------------------------7*--|
D|------7*--7*---------9---9---9---9---9-------------9---9---9---9---7*--7*|
A|---7*------------------------------------------------------------7*------|
D|---7*------------------------------------------------------------7*------|

Chorus 1:


E|-----------------------------------------|
B|-----------------------------------------|
G|-----------------------------------------|
D|--5------5--8--9----2--------2--------2--| x4
A|--5------5--8--9----2--------2--------2--|
D|--5---5--5--8--9----2--2--2--2--2--2--2--|
        .              .  .       .  . 

Chorus 2:

Chorus 1 x2 +

E|------------------------------------------------------------------------|
B|------------------------------------------------------------------------|
G|------------------------------------------------------------------------|
D|--5---5--8--9-------------------------5---5--8--9---2---2---2--2--2---2-| 
A|--5---5--8--9---5---5---5--5--5---5---5---5--8--9---2---2---2--2--2---2-|
D|--5---5--8--9---0---0---0--0--0---0---5---5--8--9---2---2---2--2--2---2-|


E|------------------------------------------------------------------------|
B|------------------------------------------------------------------------|
G|------------------------------------------------------------------------|
D|--5---5--8--9-------------------------5---5--8--9---7---7---7--7--7---7-| 
A|--5---5--8--9---5---5---5--5--5---5---5---5--8--9---7---7---7--7--7---7-|
D|--5---5--8--9---0---0---0--0--0---0---5---5--8--9---7---7---7--7--7---7-|


"Solo":

E|---9~--9---7---9---10-9--7~----7---9---10---9---7---9~----7------|
B|---10~-10--8---10--11-10-8~----8---10--11---10--8---10~---8------|
G|---9~--9---7---9---10-9--7~----7---9---10---9---7---9~----7------|
D|-----------------------------------------------------------------|
A|-----------------------------------------------------------------|
D|-----------------------------------------------------------------|

Rythm ---> Chorus 1

Quiet Part:

Lead:

E|---------------------------------------|
B|-----0-----1-----0-----------0---------|
G|-----------------------2--------0------|
D|--2-----2-----2-----2-----2--------2---| 
A|---------------------------------------|
D|---------------------------------------|

Rhythm:

E|-----7------------7------------7-------|
B|-------8---10~------8---10~------8-----|
G|---9-----9------9-----9------9------9--|
D|---------------------------------------| 
A|---------------------------------------|
D|---------------------------------------|

Last Chorus:

Chorus 1 x2
Chorus 2
Chorus 1 x3 +

E|-------------------------------------------|
B|-------------------------------------------|
G|-------------------------------------------|
D|----5------5--8--9---7---7---7--7--7---7---| 
A|----5------5--8--9---7---7---7--7--7---7---|
D|----5---5--5--8--9---7---7---7--7--7---7---|
          .

have fun ;)
Добавлено: 09.11.2013
Вам также может быть интересно:
Другие материалы по этой песне:
  • Аккорды и текст

Страница создана 04.09.2013
http://primanota.ru/emigrate/blood-chords.htm
Привет, Гость.
Предлагаем пройти революционный курс по гитаре.
Подарок от PrimaNota.Ru, забирай!