PrimaNota.ru - самый крупный в мире бесплатный архив песенных текстов, аккордов, табулатур и нот


Emigrate - My World - текст песни, таба, бас-таба, видео

Регистрация Запомнить меня
Войти через:  Facebook Google Twitter Vk Yandex Mail.ru

Emigrate - My World - текст песни, таба, бас-таба, видео

Печатать
Просмотров: 372
Уроки эстрадного вокала в Санкт-Петербурге
 E--------------------------------------|
 B--------------------------------------|
 G--------------------------------------|
 D-1-x-x-x-x-x----1/3-x-x-x-x-x-x-x-----|
 A-1-x-x-x-x-x----1/3-x-x-x-x-x-x-x-----|
 D-1-x-x-x-x-x----1/3-x-x-x-x-x-x-x-----|


 E--------------------------------------|
 B--------------------------------------|
 G--------------------------------------|
 D--6-6-6-6-6-6-6-6---1-1-1-1---3-3-3-3-|
 A--6-6-6-6-6-6-6-6---1-1-1-1---3-3-3-3-|
 D--6-6-6-6-6-6-6-6---1-1-1-1---3-3-3-3-|


 E--------------------------------------|
 B--------------------------------------|
 G--------------------------------------|
 D-1-x-x-x-x-x----1/3-x-x-x-x-x-x-x-----|
 A-1-x-x-x-x-x----1/3-x-x-x-x-x-x-x-----|
 D-1-x-x-x-x-x----1/3-x-x-x-x-x-x-x-----|


 E-------------------------------------|
 B-------------------------------------|
 G-------------------------------------|
 D-10--9--6--5--8----------------------|
 A-10--9--6--5--8----------------------|
 D-10--9--6--5--8----------------------|

 E-------------------------------------|
 B-------------------------------------|
 G-------------------------------------|
 D-------------------------------------| x2
 A---7----6------3-----3---------------|
 D-------------------------------------|

 ----------------------------------------|
 B---------------------------------------|
 G---------------------------------------|
 D---------------------------------------| x2
 A---7/////////6////////3///////3//////--|
 D---------------------------------------|


 E-------------------------------------|
 B-------------------------------------|
 G-------------------------------------|
 D-10--9--6--5--8----------------------|
 A-10--9--6--5--8----------------------|
 D-10--9--6--5--8----------------------|


 E-------------------------------------------------------------|
 B-------------------------------------------------------------|
 G-------------------------------------------------------------|
 D--6-6-6-6-6-6-6-6---1-1-1-1-1-1---3-3-3  03:22 trought 03:30-| of the song
 A--6-6-6-6-6-6-6-6---1-1-1-1-1-1---3-3-3----------------------|
 D--6-6-6-6-6-6-6-6---1-1-1-1-1-1---3-3-3----------------------|

 E--------------------------------------|
 B--------------------------------------|
 G--------------------------------------|
 D-1-x-x-x-x-x----1/3-x-x-x-x-x-x-x-----|
 A-1-x-x-x-x-x----1/3-x-x-x-x-x-x-x-----|
 D-1-x-x-x-x-x----1/3-x-x-x-x-x-x-x-----|
Добавлено: 02.08.2013
Другие материалы по этой песне:

Страница создана 06.07.2012
http://primanota.ru/emigrate/my-world-chords.htm
Привет, Гость.
Предлагаем пройти революционный курс по гитаре.
Подарок от PrimaNota.Ru, забирай!