PrimaNota.ru - самый крупный в мире бесплатный архив песенных текстов, аккордов, табулатур и нот


Emigrate - Wake Up - текст песни, таба, бас-таба, видео

Регистрация Запомнить меня
Войти через:  Facebook Google Twitter Vk Yandex Mail.ru

Emigrate - Wake Up - текст песни, таба, бас-таба, видео

Печатать
Просмотров: 262
----------------------------------------------------------------------------
                             Wake Up - Emigrate
----------------------------------------------------------------------------
Tabbed by: Bee-Ay
Email: Leviathan_ben@hotmail.com

Tuning: D-A-D-G-B-E


Hello mates. This should work.

Start note (Just added for fun):

Guitar 1:        Guitar 2:
e|---------|     E|---------|
B|---------|     B|---------|
G|---------|     G|---------|
D|---------|     D|---------|
A|---------|     A|---------|
D|----0----|     D|---<5>---|

Intro and verse riff:
e|-----------------------------------------|
B|-----------------------------------------|
G|*---------------------------------------*|
D|*------0-0-------0-0-------0-0--3-3-5/6-*|
A|--0-0--5-5--0-0--5-5--0-0--5-5--3-3-5/6--|
D|--0-0--0-0--0-0--0-0--0-0--0-0--3-3-5/6--|
PM: . .       . .       . .

e|---------------------|
B|---------------------|
G|---------------------|
D|-6-0-6-0-6-0-6-0-3-5-|
A|-6-0-6-0-6-0-6-0-3-5-|
D|-6-0-6-0-6-0-6-0-3-5-|


e|------------------------------------------------------------------|
B|------------------------------------------------------------------|
G|*-----------------------------------------------------------------|
D|*-8-8-8-8-8-8-8-8-8-8-8-8-8-8-8-8-7-7-7-7-7-7-7-7-7-7-7-7-7-7-7-7-|
A|--8-8-8-8-8-8-8-8-8-8-8-8-8-8-8-8-7-7-7-7-7-7-7-7-7-7-7-7-7-7-7-7-|
D|--8-8-8-8-8-8-8-8-8-8-8-8-8-8-8-8-7-7-7-7-7-7-7-7-7-7-7-7-7-7-7-7-|

e|---------------------------------------------------------------------|
B|--------------------------------10-10-10-10-10-10-10-10--------------|
G|--------------------------------9-9-9-9-9-9-9-9-9-9-9-9-------------*|
D|8-8-8-8-8-8-8-8-5-5-5-5-5-5-5-5-7-7-7-7-7-7-7-7-7-7-7-7-10-10-10-10-*|
A|8-8-8-8-8-8-8-8-5-5-5-5-5-5-5-5-7-7-7-7-7-7-7-7-7-7-7-7-10-10-10-10--|
D|8-8-8-8-8-8-8-8-5-5-5-5-5-5-5-5-7-7-7-7-7-7-7-7-7-7-7-7-10-10-10-10--|

[ Solo ]

e|---------------------------------------------------------------------------------------|
B|-10-------10-10-------10-------10-10---------13-------13-13-------13-------13-13-------|
G|----11----------11-------11----------11---------14----------14-------14----------14----|
D|-------12----------12-------12----------12---------12----------12-------12----------12-|
A|---------------------------------------------------------------------------------------|
D|---------------------------------------------------------------------------------------|

e|---------------------------------------------------------------------------------------|
B|-10-------10-10-------10-------10-10---------13-------13-13-------13-------13-13-------|
G|----11----------11-------11----------11---------14----------14-------14----------14----|
D|-------12----------12-------12----------12---------12----------12-------12----------12-|
A|---------------------------------------------------------------------------------------|
D|---------------------------------------------------------------------------------------|

e|------------------------------------------------------------------------------------|
B|-15-------15-15-------13-------13-13-------10-------10-10-----10-------10-10--------|
G|----15----------15-------14----------14-------12----------12~----12----------12-----|
D|-------17----------17-------15----------15-------12-----------------10----------10~-|
A|------------------------------------------------------------------------------------|
E|------------------------------------------------------------------------------------|


Rythm in solo:

Rythm 1:
e|------------------------------------|
B|------------------------------------|
G|*-----------------------------------|
D|*----------------------------------*|
A|-----------------------------------*|
E|--0-0-0-0-0-0-0-0-0-0-0-0-3-0-5/6---|


Rythm 2:
e|------------------------------------------------------------------|
B|------------------------------------------------------------------|
G|------------------------------------------------------------------|
D|--8-8-8-8-8-8-8-8-8-8-8-8-8-8-8-8-7-7-7-7-7-7-7-7-7-7-7-7-7-7-7-7-|
A|--8-8-8-8-8-8-8-8-8-8-8-8-8-8-8-8-7-7-7-7-7-7-7-7-7-7-7-7-7-7-7-7-|
D|--8-8-8-8-8-8-8-8-8-8-8-8-8-8-8-8-7-7-7-7-7-7-7-7-7-7-7-7-7-7-7-7-|

e|---------------------------------------------------------------------|
B|---------------------------------------------------------------------|
G|---------------------------------------------------------------------|
D|8-8-8-8-8-8-8-8-5-5-5-5-5-5-5-5-7-7-7-7-7-7-7-7-7-7-7-7-10-10-10-10--|
A|8-8-8-8-8-8-8-8-5-5-5-5-5-5-5-5-7-7-7-7-7-7-7-7-7-7-7-7-10-10-10-10--|
D|8-8-8-8-8-8-8-8-5-5-5-5-5-5-5-5-7-7-7-7-7-7-7-7-7-7-7-7-10-10-10-10--|

And thats it! I will post more of Emigrate soon. Thanks.
Добавлено: 20.10.2013
Другие материалы по этой песне:

Страница создана 13.03.2012
http://primanota.ru/emigrate/wake-up-chords.htm
Привет, Гость.
Предлагаем пройти революционный курс по гитаре.
Подарок от PrimaNota.Ru, забирай!