PrimaNota.ru - самый крупный в мире бесплатный архив песенных текстов, аккордов, табулатур и нот


Emigrate - This Is What - текст песни, таба, видео

Регистрация Запомнить меня
Войти через:  Facebook Google Twitter Vk Yandex Mail.ru

Emigrate - This Is What - текст песни, таба, видео

Печатать
Просмотров: 244
Artist: Emigrate
Song: This is what
Album: Emigrate / 2007
Tabbed by: Rammkopf and me

Drop C

Intro:

D|----------|
A|----------|
F|----------|
C|----------|
G|----------|
C|-3*3*3*3*-|

D|-----------------------------------------------------------------------|
A|-----------------------------------------------------------------------|
F|-----------------------------------------------------------------------|
C|--7---------8/7-----------------8/7---------8/7---------5h6p5----------|
G|--5---------6/5-----------------6/5---------6/5---------------6--------|
C|----0-0-0-0-----0-0-0-0-0-0-0-0-----0-0-0-0-----0-0-0-0----------------|
      . . . .     . . . . . . . .     . . . .     . . . . 

Verse:

D|-----------------------------------------------------------------------|
A|-----------------------------------------------------------------------|
F|-----------------------------------------------------------------------|
C|------------------------------------------------------------5h6p5------|
G|--5----------5----------5------5----------5----------5------------6----|
C|--0--0-0-0-0-0--0-0-0-0-0--0-0-0--0-0-0-0-0--0-0-0-0-0--0-0------------|
       . . . .    . . . .    . .    . . . .    . . . .    . . 

Bridge:

D|-----------------------------------------------------------------------|
A|-----------------------------------------------------------------------|
F|-----------------------------------------------------------------------|
C|-------------------------------------------------------------3-3-------|
G|--2----------2----------2------2----------2----------2-------3-3-------|
C|--2--2-2-2-2-2--2-2-2-2-2--2-2-2--2-2-2-2-2--2-2-2-2-2--2-2--3-3-------|
       . . . .    . . . .    . .    . . . .    . . . .    . . 

Chorus:

D|-----------------------------------------------------------------------|
A|-----------------------------------------------------------------------|
F|-----------------------------------------------------------------------|
C|------2---------3--3-3---------------------2---------3--3-3--7--7-7----|
G|-5----2----3----3--3-3--5--5-5--------5----2----3----3--3-3--5--5-5----|
C|-0----2----5----3--3-3--0--0-0--------0----2----5----3--3-3--0--0-0----|

Solo:

D|-----------------------------------------------------------------------|
A|--13b15 (slow rel. while picking)----9~----------8~--------------------|
F|-----------------------------------------------------------------------|
C|-----------------------------------------------------------------------|
G|-----------------------------------------------------------------------|
C|-----------------------------------------------------------------------|

D|-----------------------------------------------------------------------|
A|--------6-8b10r8b10-------------6h8p6----------------------------------|
F|--5-7-x--------------7-7-7-5/0--------7-7--x-7-x---7-7-7-5/0-----------|
C|-----------------------------------------------------------------------|
G|-----------------------------------------------------------------------|
C|-----------------------------------------------------------------------|

D|------------------------------------------------------------------------|
A|---8b10r8--8b10r8-6h8-6----7---------6h8b10--8b10--6h8------------------|
F|-------------------------7---7-5-7~---------------------5h7~--7~--------|
C|------------------------------------------------------------------h10/0-|
G|------------------------------------------------------------------------|
C|------------------------------------------------------------------------|


D|--------------------13-15-15b17-15b17~-17*(slow rel.)15~-p13-------------|
A|----6-8b10-8b10~-/15----------------------------------------15~-15b18-r15|
F|-5-7---------------------------------------------------------------------|
C|-------------------------------------------------------------------------|
G|-------------------------------------------------------------------------|
C|-------------------------------------------------------------------------|

Rhythm ---> Verse

Outro:

Verse + D|--------------------| + Verse with Ending in a Barre 0 on C-G-C
        A|--------------------|
        F|--------------------|
        C|--------------------|x2
        G|-0--0--0--0--0-0--0-|
        C|-0--0--0--0--0-0--0-|
           .  .  .  .  . .  .

rel. + r - Release
b - Bend
h - hammer-on
p - pull off
Добавлено: 02.08.2013
Другие материалы по этой песне:
  • Аккорды и текст

Страница создана 02.08.2013
http://primanota.ru/emigrate/this-is-what-chords.htm
Привет, Гость.
Предлагаем пройти революционный курс по гитаре.
Подарок от PrimaNota.Ru, забирай!