PrimaNota.ru - самый крупный в мире бесплатный архив песенных текстов, аккордов, табулатур и нот


Duane Eddy - Yep - таба, бас-таба, видео

Регистрация Запомнить меня
Войти через:  Facebook Google Twitter Vk Yandex Mail.ru

Duane Eddy - Yep - таба, бас-таба, видео

Печатать
Просмотров: 143
YEP!

As recorded by Duane Eddy
(From the 1959 Album ESPECIALLY FOR YOU)

Music by Duane Eddy & Lee Hazlewood

Transcribed by Slowhand


Gtr I (E A D G B E) - 'Steve Douglas - Tenor Saxophone'
Gtr II (E A D G B E) - 'Duane Eddy - Electric Guitar'


  Q=136
  N.C.                                  A
 4/4
  Gtr II
                 \0.5  |
  H    Q   Q     E    +Q.   +E  E E E   Q  E E E E E E
|--------------|----------------------|----------------|
|--------------|----------------------|----------------|
|--------------|----------------------|----------------|
|--------------|------------------2---|-2--2-------2---|
|--------------|----------------------|-0--0---0-------|
|---------12\--|-0----(0)---(0)-0-3-0-|------3-0-0-3-0-|


  Gtr I
  W                W
|----------------|----------------|
|----------------|----------------|
|----------------|----------------|
|----------------|----------------|
|----------------|----------------|
|----------------|----------------|
|
| Gtr II
| Q  E E E E E E   Q  E E E E E E
|----------------|----------------|
|----------------|----------------|
|----------------|----2-----------|
|-2--2-----------|-2--2-----------|
|-0--0---0-------|-0--0---0-------|
|------3-0-0-3-0-|------3-0-0-3-2-|


                     A
  H      Q   E  E     +E   E  E  E  E  E  E  E
|-----------------||----------------------------|
|--------------13-||-(13)-13-14-13-14-----------|
|-----------------||------------------14--------|
|-----------------||---------------------16-14--|
|-----------------||----------------------------|
|-----------------||----------------------------|
|
| Q  E E E E E  E      Q      E  E  Q     E  E
|-----------------||----------------------------|
|-----------------||----------2-----------------|
|-----------------||----------2--0--------------|
|-2--2-------2----||----------------------------|
|-0--0---0--------||---0------------------------|
|------3-0-0-3--0-||----------------0-----3-----|


   a  Q   Q    S  S E E  E    Q   +E.    S  E E Q
|-14h17--------------------|-----------------------|
|-------------14h17--------|-----------------------|
|--------------------------|-14--(14)--------------|
|--------19-------------17-|------------16p14------|
|--------------------------|-----------------------|
|--------------------------|-----------------------|
|
|     Q   E E  E    E Q       Q   +E  E     Q   Q
|--------------------------|-----------------------|
|---------2----------------|-----------------------|
|---------2-0--------------|-----------------------|
|--------------------------|-----------------------|
|-----0--------------------|--0---(0)--------------|
|--------------0----0-3----|----------3-----0---3--|


   Q.    E  Q   E  E    +E   E  E  E  E  E  E  E
|--------------------|---------------------------|
|-----------------13-|-(13)-13-14-13-14----------|
|-14-----------------|------------------14-------|
|-------17p14--------|---------------------16p14-|
|--------------------|---------------------------|
|--------------------|---------------------------|
|
|  H        E E e  E     Q      Q     Q     Q
|--------------------|---------------------------|
|--------------------|----------2-----------2----|
|--------------------|----------2----------------|
|--2-----------------|---------------------------|
|--0-----------------|---0-----------------------|
|-----------0-0-3----|----------------0----------|


   a  Q   a  Q   S  S E Q     Q   +E.  S  E E Q
|--------------------------|----------------------|
|--------------------------|----------------------|
|-12h14--12h14-------------|-14--(14)-------------|
|---------------16-14------|----------16p14-------|
|--------------------------|----------------------|
|--------------------------|----------------------|
|
|     Q      Q   Q      Q     Q    Q      E E E E
|--------------------------|----------------------|
|------------2-------------|----------------------|
|------------2-------------|----------------------|
|--------------------------|--2----2--------------|
|-----0--------------------|--0-------------------|
|----------------0------3--|--------------0-0-3-0-|


                        D7
   Q.     E  E E E  E    +E   E  E  E  E   E  E  E
|------------------13-|-(13)-13-14-13-14-----------|
|---------------------|-------------------15-------|
|-14-----12-----------|----------------------16p14-|
|-----------14--------|----------------------------|
|---------------------|----------------------------|
|---------------------|----------------------------|
|
|  Q   Q     E E E  E     Q      Q    +Q.        E
|---------------------|--------------------------2-|
|---------------------|----------1----(1)----------|
|---------------------|---2------------------------|
|--2---2--------------|---0------------------------|
|--0------------------|----------------------------|
|------------0-0-3----|----------------------------|


   a  Q   a  Q   S  S E Q     Q.    E Q   E  E
|---------------14h17------|-------------------|
|-13h15--13h15-------------|-15p===14-------15-|
|--------------------------|-------------------|
|--------------------------|-------------------|
|--------------------------|-------------------|
|--------------------------|-------------------|
|
|     Q      H          Q     Q  E  E E E E  E
|--------------------------|-------------------|
|------------1-------------|-------------------|
|--------------------------|--2--2-------------|
|-----0--------------------|--0-------0-0------|
|-----------------------3--|--------4-0---3----|
|--------------------------|-------------------|


                              A
   +E   a  Q    E  Q   E  E    +E   E  E  E  E  E  E  E
|---------------------------|----------------------------|
|-(15)-14h15p==14--------13-|-(13)-13-14-13-14-----------|
|-----------------14--------|------------------14--------|
|---------------------------|---------------------16p14--|
|---------------------------|----------------------------|
|---------------------------|----------------------------|
|
|   Q        E  E  E E Q        Q      E  E  Q     Q
|---------------------------|----------------------------|
|---------------------------|----------2-----------2-----|
|---2--------2--------------|----------2-----------------|
|---0--------------0-0------|----------------------------|
|---------------3--0---3----|---0------------------------|
|---------------------------|-------------3--0-----------|


                                     |--3--|
   a  Q   a  Q    S  S E Q     Q    +Q     E  Q   Q
|---------------------------|-------------------------|
|---------------------------|-------------------------|
|-12h14--12h14--------------|-14---(14)---12----------|
|----------------16p14------|----------------14-------|
|---------------------------|-------------------------|
|---------------------------|-------------------------|
|
|     Q      E E  Q      Q     Q.       E     E E e E
|---------------------------|-------------------------|
|------------2--------------|-------------------------|
|------------2--------------|-------------------------|
|---------------------------|--2----------------------|
|-----0---------------------|--0----------------------|
|--------------3--0------3--|-----------------0-0-3---|


                             E5   E°    E5
   E  a  Q    S  S H         W
|--------------------------|--------------------|
|--------------------------|--------------------|
|-14-13h14-----------------|--------------------|
|------------16p14---------|--------------------|
|--------------------------|--------------------|
|--------------------------|--------------------|
|
|  Q       Q       E E E E   Q  E E +E  E E E
|--------------------------|--------------------|
|--------------------------|--------------------|
|--------------------------|------0-(0)---------|
|--2-------2---------------|-2----------2-------|
|--0-----------------------|-2--2-1-(1)-2-2-----|
|------------------0-0-3p0-|-0--0-0-(0)-0-0-0---|


  D/F#               E5    E°    E7      D/F#               A5        N.C.
  Gtr II
  E E E E +E  E Q    E E E E +E  E E E   Q  E E +E  E E E   E E Q  Q   Q
|------------------|-------------------|------------------|-----------------|
|------------------|-------------------|------------------|-----------------|
|-----2-1-(1)---2--|-------0-(0)-------|-2----2-(2)-------|-----------------|
|-----0-0-(0)------|-------------0-----|-0----0-(0)-------|-2---------------|
|-----0-2-(2)-0----|-2-2-2-1-(1)-2-----|-0----0-(0)-0-----|-0---------------|
|-2-2---1-(1)-2----|-0-0-0-------0-0-0-|-2--2-2-(2)-0-2-0-|-----------12\---|


                         A                                  Bb5
  \0.5  |
  E    +Q.   +E  E E E   Q  E E E E E E   Q  E E E E E E    Q  E E E E E E
|----------------------|----------------|----------------||-----------------|
|----------------------|----------------|----------------||-----------------|
|----------------------|----2-----------|----2-----------||-----------------|
|------------------2---|-2--------------|-2--2-----------||-3------3---3----|
|----------------0---0-|-0--------------|-0--------------||-1--1---1-1---1--|
|-0----(0)---(0)-0-3---|------3-0-0-3-0-|------3-0-0-3-0-||------4-1---4----|


                   B5                               C5
  Q  E E E E E E   Q  E E Q  E E   Q  E E E E E E   Q  E E E E E E
|----------------|---------------|----------------|-----------------|
|----------------|---------------|----------------|-----------------|
|----------------|---------------|----------------|-----------------|
|-3--3-------3---|-4--4------4---|-4--4-------4---|-5--5------------|
|-1----1-1-1---3-|-2--2-0--------|-2--2-0---------|-3--3-1-3---1-3--|
|--------1---4---|--------2--5-2-|--------2-2-5---|--------3-3------|


                   C
  Q  E E Q  E E    Q  E E Q  Q    Q  E E Q  E E   Q  E E E E Q
|---------------||--------------|---------------|---------------|
|---------------||--------------|----1------1---|----1----------|
|---------------||----0---------|----0------0---|----0----------|
|-5---------5---||-2----2----5--|----2------2---|-2--2---2---2--|
|-3--3-1-3------||-3------3-----|-3----0----3-0-|-3--3-1-----1--|
|--------0--6---||--------3-----|--------3------|--------3-3----|


  Q  E E Q  E E   Q  H    Q    Q  H    E E   Q  E E Q  E E
|---------------|------------|-------------|---------------|
|----1----------|------------|-------------|---------------|
|----0----------|----2----2--|----2----2---|---------------|
|----2----------|------------|----3--------|-2-------------|
|-3----0----1-0-|----3----3--|----3------0-|-3--3-1----1-0-|
|--------3------|-1----------|-1-----------|--------3------|


                  G5                  E5F5               F#G5
  Q  E E Q  E E    Q  E E +E  E E E   E E E E +E  E Q    E E E E +E  E Q
|----0----------|-------------------|------------------|------------------|
|----1----------|-------------------|------------------|------------------|
|----0------0---|-------------------|------------------|------------------|
|-----------2---|-------------------|------------------|------------------|
|-3-------------|-/5----5-(5)-5-5-5-|-2-3-3-3-(3)-3-3--|-4s5-5-5-(5)-5-5--|
|------5-3------|-/3----3-(3)-3-3-3-|-0-1-1-1-(1)-1-1--|-2s3-3-3-(3)-3-3--|


  E5F5                 C         N.C.                          C
                                        \0.5
  E E E a E +Q   E E   E E Q  Q   Q     E    +Q.   +E  E E E   Q  E E E E Q
|--------------------|----------------|----------------------|----------------|
|--------------------|----------------|----------------------|----------------|
|--------------------|----------------|----------------------|----0-----------|
|--------------------|-2--------------|----------------------|-2--2-----------|
|-2-3-3----------0-0-|-3--------------|------------------1---|-3--3-1-----1---|
|-0-1-1-0h1-(1)------|-----------15\--|-3----(3)---(3)-3---3-|--------3-3-----|


  N.C.                               B5               Bb5
  Q  E E E E E E    Q  E E E E E E   Q  E E E E E E   Q  E E E E E E
|----------------||----------------|----------------|----------------|
|----------------||----------------|----------------|----------------|
|----3-----------||----------------|----------------|----------------|
|----2-1-----1---||-4--4-------0---|-4--4-0---------|-3--------------|
|-3--3-1-----1---||-2--2-0-2---0---|-2--2-0-2---0---|-1--1---1-------|
|--------3-3-----||--------2-2---2-|--------2-2---0-|------4-1-1-4-4-|


                   A
  Gtr I
  W                W
|----------------|----------------|
|----------------|----------------|
|----------------|----------------|
|----------------|----------------|
|----------------|----------------|
|----------------|----------------|
|
| Gtr II
| Q  E E E E E E   Q  E E E E E E
|----------------|----------------|
|----------------|----------------|
|----------------|----2-----------|
|-3--3-------3---|-2--2-----------|
|-1------1-------|-0--------------|
|------4-1-1-4-4-|------3-0-0-3-0-|


                     A
  H      Q   E  E     +E   E  E  E  E  E  E  E
|-----------------||----------------------------|
|--------------13-||-(13)-13-14-13-14-----------|
|-----------------||------------------14--------|
|-----------------||---------------------16p14--|
|-----------------||----------------------------|
|-----------------||----------------------------|
|
| Q  E E E E E  E      Q      E  E  E  E  Q
|-----------------||----------------------------|
|----2------------||----------2-----------2-----|
|----2------------||----------------------2-----|
|-----------------||---2---------2-----2--------|
|-0---------------||---0------------------------|
|------3-0-0-3--0-||----------------0-----------|


   a  Q   a  Q    S  S E Q      Q.    E H
|-------------------12-------|-----------------|
|----------------14----------|-----------------|
|-13h14--13h14---------------|-14p===12--------|
|----------------------------|-----------------|
|----------------------------|-----------------|
|----------------------------|-----------------|
|
|     Q      E E  Q      E E    Q  E  E E E Q
|----------------------------|-----------------|
|------------2---------------|-----------------|
|------------2---------------|-----------------|
|-----2------2-----------2---|--2--2-----------|
|-----0----------------------|--0--------------|
|-----------------0------3---|--------3-0-0-3--|


   a  E  a  Q    E Q   E  E    +E   E  E  E  E  E  E  E
|---------------------------|---------------------------|
|------------------------13-|-(13)-13-14-13-14----------|
|-13h14-13h14---------------|------------------14-------|
|---------------16----------|---------------------16p14-|
|---------------------------|---------------------------|
|---------------------------|---------------------------|
|
|     Q       E  E E E E  E     Q      E  E  E  E  E  E
|---------------------------|---------------------------|
|---------------------------|----------2--------------2-|
|-------------2-------------|---------------------------|
|-----2-------2-------------|---2-----------------------|
|-----0------------0--------|---0-----------------------|
|----------------3-0-0-3----|-------------3--0--0--3----|


   a  Q   a  Q   S  S E E  E    +Q.     S  S Q  E  E
|----------------------------|-----------------------|
|----------------------------|-----------------------|
|-13h14--13h14------------14-|-(14)---------------14-|
|---------------16-14--------|---------16p14---------|
|----------------------------|-----------------------|
|----------------------------|-----------------------|
|
|     Q      Q   E    E Q        Q   Q       Q  E  E
|----------------------------|-----------------------|
|------------2---------------|-----------------------|
|------------2---------------|-----------------------|
|-----2-----------------2----|---2---2---------------|
|-----0----------------------|---0-----------0-------|
|----------------0----0-3----|---------------0--3----|


   +E   a  Q   S  S  Q   E  E
|--------------------------13-|
|-----------------------------|
|-(14)-13h14------------------|
|-------------16p15p14--------|
|-----------------------------|
|-----------------------------|
|
|   Q.         E     E E E  E
|-----------------------------|
|-----------------------------|
|-----------------------------|
|---2-------------------------|
|---0-------------------------|
|--------------------0-0-3----|


  D7
   +E   E  E  E  E  E  E  E    a  Q   a  Q    S  S E E  E
|-(13)-13-14-13-14----------|----------------14h17-----13-|
|------------------15-------|-13h15--13h15----------------|
|---------------------16p14-|-----------------------------|
|---------------------------|-----------------------------|
|---------------------------|-----------------------------|
|---------------------------|-----------------------------|
|
|   Q      H           E  E       Q      E E  Q      E  E
|-------------------------2-|-----------------------------|
|----------1-----------1----|------------1----------------|
|---2------2----------------|-----2------2----2-----------|
|---0-----------------------|-----0-----------------------|
|---------------------------|--------------3--0------3----|
|---------------------------|-----------------------------|


   +E   a  Q    +E  Q   E  E
|-(13)-10h13---(13)-----------|
|-------------------------15--|
|-----------------------------|
|-----------------------------|
|-----------------------------|
|-----------------------------|
|
|   Q        E   E  E E E  E
|-----------------------------|
|-----------------------------|
|---2--------2----------------|
|---0---------------0---------|
|----------------3--0-0-3--0--|
|-----------------------------|


   +E   a  Q   E Q   E  E    +E   E  E  E  E  E  E  E
|-------------------------|---------------------------|
|-(15)-12h15-----------13-|-(13)-13-14-13-14----------|
|-------------------------|------------------14-------|
|-------------------------|---------------------16p14-|
|-------------------------|---------------------------|
|-------------------------|---------------------------|
|
|   Q        E E E E Q        Q      E  E  Q     Q
|-------------------------|-------------0-------------|
|-------------------------|----------2----------------|
|---2--------2------------|---------------------------|
|---0------------0---2----|---2-----------------------|
|--------------3-0-0-3----|---0-----------------------|
|-------------------------|----------------0----------|


   a  Q   a  Q   S  S E Q
|----------------------------*|
|----------------------------*|
|-13h14--13h14---------------*|
|---------------16-14--------*|
|----------------------------*|
|----------------------------*|
|
|     Q      Q   Q      E E
|------------0---------------*|
|-------------------------2--*|
|----------------------------*|
|-----2----------------------*|
|-----0----------------------*|
|----------------0------3----*|


Duration Legend
---------------
W - whole; H - half; Q - quarter; E - 8th; S - 16th; T - 32nd; X - 64th; a - acciaccatura
+ - note tied to previous; . - note dotted; .. - note double dotted
Uncapitalized letters represent notes that are staccato (1/2 duration)
Irregular groupings are notated above the duration line
Duration letters will always appear directly above the note/fret number it represents the
duration for.  Duration letters with no fret number below them represent rests.  Multi-
bar rests are notated in the form Wxn, where n is the number of bars to rest for.  Low
melody durations appear below the staff

Tablature Legend
----------------
 h   - hammer-on
 p   - pull-off
 b   - bend
 pb  - pre-bend
 r   - bend release (if no number after the r, then release immediately)
 /\  - slide into or out of (from/to "nowhere")
 s   - legato slide
 S   - shift slide
  - natural harmonic
[n]  - artificial harmonic
n(n) - tapped harmonic
 ~   - vibrato
 tr  - trill
 T   - tap
 TP  - trem. picking
 PM  - palm muting
\n/  - tremolo bar dip; n = amount to dip
 \n  - tremolo bar down
 n/  - tremolo bar up
/n\  - tremolo bar inverted dip
 =   - hold bend; also acts as connecting device for hammers/pulls
 <>  - volume swell (louder/softer)
 x   - on rhythm slash represents muted slash
 o   - on rhythm slash represents single note slash

Misc Legend
-----------
 |  - bar
||  - double bar
||o - repeat start
o|| - repeat end
*|  - double bar (ending)
 :  - bar (freetime)
 $  - Segno
 &  - Coda
Tempo markers -  = BPM(8/16=s8/s16), where s8 = swing 8ths, s16 = swing 16ths
Добавлено: 11.07.2015
Вам также может быть интересно:
Другие материалы по этой песне:

Страница создана 25.02.2014
http://primanota.ru/duane-eddy/yep-chords.htm
Привет, Гость.
Предлагаем пройти революционный курс по гитаре.
Подарок от PrimaNota.Ru, забирай!